  0
SECTION
  2
HEADER
  9
$ACADVER
  1
AC1015
  9
$ACADMAINTVER
 70
     6
  9
$DWGCODEPAGE
  3
ANSI_1252
  9
$INSBASE
 10
0.0
 20
0.0
 30
0.0
  9
$EXTMIN
 10
0.0
 20
0.0
 30
0.0
  9
$EXTMAX
 10
44.0
 20
34.0
 30
0.0
  9
$LIMMIN
 10
0.0
 20
0.0
  9
$LIMMAX
 10
44.0
 20
34.0
  9
$ORTHOMODE
 70
     0
  9
$REGENMODE
 70
     1
  9
$FILLMODE
 70
     1
  9
$QTEXTMODE
 70
     0
  9
$MIRRTEXT
 70
     1
  9
$LTSCALE
 40
1.0
  9
$ATTMODE
 70
     1
  9
$TEXTSIZE
 40
0.125
  9
$TRACEWID
 40
0.05
  9
$TEXTSTYLE
  7
Standard
  9
$CLAYER
  8
0
  9
$CELTYPE
  6
ByLayer
  9
$CECOLOR
 62
   256
  9
$CELTSCALE
 40
1.0
  9
$DISPSILH
 70
     0
  9
$DIMSCALE
 40
1.0
  9
$DIMASZ
 40
0.13
  9
$DIMEXO
 40
0.05
  9
$DIMDLI
 40
0.38
  9
$DIMRND
 40
0.0
  9
$DIMDLE
 40
0.0
  9
$DIMEXE
 40
0.125
  9
$DIMTP
 40
0.0
  9
$DIMTM
 40
0.0
  9
$DIMTXT
 40
0.125
  9
$DIMCEN
 40
0.09
  9
$DIMTSZ
 40
0.0
  9
$DIMTOL
 70
     0
  9
$DIMLIM
 70
     0
  9
$DIMTIH
 70
     1
  9
$DIMTOH
 70
     1
  9
$DIMSE1
 70
     0
  9
$DIMSE2
 70
     0
  9
$DIMTAD
 70
     0
  9
$DIMZIN
 70
     0
  9
$DIMBLK
  1

  9
$DIMASO
 70
     1
  9
$DIMSHO
 70
     1
  9
$DIMPOST
  1

  9
$DIMAPOST
  1

  9
$DIMALT
 70
     0
  9
$DIMALTD
 70
     2
  9
$DIMALTF
 40
25.4
  9
$DIMLFAC
 40
1.0
  9
$DIMTOFL
 70
     0
  9
$DIMTVP
 40
0.0
  9
$DIMTIX
 70
     0
  9
$DIMSOXD
 70
     0
  9
$DIMSAH
 70
     0
  9
$DIMBLK1
  1

  9
$DIMBLK2
  1

  9
$DIMSTYLE
  2
Standard
  9
$DIMCLRD
 70
     0
  9
$DIMCLRE
 70
     0
  9
$DIMCLRT
 70
     0
  9
$DIMTFAC
 40
1.0
  9
$DIMGAP
 40
0.06
  9
$DIMJUST
 70
     0
  9
$DIMSD1
 70
     0
  9
$DIMSD2
 70
     0
  9
$DIMTOLJ
 70
     1
  9
$DIMTZIN
 70
     0
  9
$DIMALTZ
 70
     0
  9
$DIMALTTZ
 70
     0
  9
$DIMUPT
 70
     0
  9
$DIMDEC
 70
     2
  9
$DIMTDEC
 70
     2
  9
$DIMALTU
 70
     2
  9
$DIMALTTD
 70
     2
  9
$DIMTXSTY
  7
Standard
  9
$DIMAUNIT
 70
     0
  9
$DIMADEC
 70
     2
  9
$DIMALTRND
 40
0.0
  9
$DIMAZIN
 70
     0
  9
$DIMDSEP
 70
    46
  9
$DIMATFIT
 70
     3
  9
$DIMFRAC
 70
     0
  9
$DIMLDRBLK
  1

  9
$DIMLUNIT
 70
     2
  9
$DIMLWD
 70
    -2
  9
$DIMLWE
 70
    -2
  9
$DIMTMOVE
 70
     0
  9
$LUNITS
 70
     2
  9
$LUPREC
 70
     2
  9
$SKETCHINC
 40
0.1
  9
$FILLETRAD
 40
0.5
  9
$AUNITS
 70
     0
  9
$AUPREC
 70
     2
  9
$MENU
  1
.
  9
$ELEVATION
 40
0.0
  9
$PELEVATION
 40
0.0
  9
$THICKNESS
 40
0.0
  9
$LIMCHECK
 70
     0
  9
$CHAMFERA
 40
0.0
  9
$CHAMFERB
 40
0.0
  9
$CHAMFERC
 40
0.0
  9
$CHAMFERD
 40
0.0
  9
$SKPOLY
 70
     0
  9
$TDCREATE
 40
2457549.39505206
  9
$TDUCREATE
 40
2457549.561718727
  9
$TDUPDATE
 40
2457549.395052234
  9
$TDUUPDATE
 40
2457549.561718901
  9
$TDINDWG
 40
0.0000000116
  9
$TDUSRTIMER
 40
0.0000000116
  9
$USRTIMER
 70
     1
  9
$ANGBASE
 50
0.0
  9
$ANGDIR
 70
     0
  9
$PDMODE
 70
     0
  9
$PDSIZE
 40
-1.0
  9
$PLINEWID
 40
0.0
  9
$SPLFRAME
 70
     0
  9
$SPLINETYPE
 70
     6
  9
$SPLINESEGS
 70
     8
  9
$HANDSEED
  5
92
  9
$SURFTAB1
 70
     6
  9
$SURFTAB2
 70
     6
  9
$SURFTYPE
 70
     6
  9
$SURFU
 70
     6
  9
$SURFV
 70
     6
  9
$UCSBASE
  2

  9
$UCSNAME
  2

  9
$UCSORG
 10
0.0
 20
0.0
 30
0.0
  9
$UCSXDIR
 10
1.0
 20
0.0
 30
0.0
  9
$UCSYDIR
 10
0.0
 20
1.0
 30
0.0
  9
$UCSORTHOREF
  2

  9
$UCSORTHOVIEW
 70
     0
  9
$UCSORGTOP
 10
0.0
 20
0.0
 30
0.0
  9
$UCSORGBOTTOM
 10
0.0
 20
0.0
 30
0.0
  9
$UCSORGLEFT
 10
0.0
 20
0.0
 30
0.0
  9
$UCSORGRIGHT
 10
0.0
 20
0.0
 30
0.0
  9
$UCSORGFRONT
 10
0.0
 20
0.0
 30
0.0
  9
$UCSORGBACK
 10
0.0
 20
0.0
 30
0.0
  9
$PUCSBASE
  2

  9
$PUCSNAME
  2

  9
$PUCSORG
 10
0.0
 20
0.0
 30
0.0
  9
$PUCSXDIR
 10
1.0
 20
0.0
 30
0.0
  9
$PUCSYDIR
 10
0.0
 20
1.0
 30
0.0
  9
$PUCSORTHOREF
  2

  9
$PUCSORTHOVIEW
 70
     0
  9
$PUCSORGTOP
 10
0.0
 20
0.0
 30
0.0
  9
$PUCSORGBOTTOM
 10
0.0
 20
0.0
 30
0.0
  9
$PUCSORGLEFT
 10
0.0
 20
0.0
 30
0.0
  9
$PUCSORGRIGHT
 10
0.0
 20
0.0
 30
0.0
  9
$PUCSORGFRONT
 10
0.0
 20
0.0
 30
0.0
  9
$PUCSORGBACK
 10
0.0
 20
0.0
 30
0.0
  9
$USERI1
 70
     0
  9
$USERI2
 70
     0
  9
$USERI3
 70
     0
  9
$USERI4
 70
     0
  9
$USERI5
 70
     0
  9
$USERR1
 40
0.0
  9
$USERR2
 40
0.0
  9
$USERR3
 40
0.0
  9
$USERR4
 40
0.0
  9
$USERR5
 40
0.0
  9
$WORLDVIEW
 70
     1
  9
$SHADEDGE
 70
     3
  9
$SHADEDIF
 70
    70
  9
$TILEMODE
 70
     1
  9
$MAXACTVP
 70
    64
  9
$PINSBASE
 10
0.0
 20
0.0
 30
0.0
  9
$PLIMCHECK
 70
     0
  9
$PEXTMIN
 10
1.0000000000E+20
 20
1.0000000000E+20
 30
1.0000000000E+20
  9
$PEXTMAX
 10
-1.0000000000E+20
 20
-1.0000000000E+20
 30
-1.0000000000E+20
  9
$PLIMMIN
 10
0.0
 20
0.0
  9
$PLIMMAX
 10
12.0
 20
9.0
  9
$UNITMODE
 70
     0
  9
$VISRETAIN
 70
     1
  9
$PLINEGEN
 70
     0
  9
$PSLTSCALE
 70
     1
  9
$TREEDEPTH
 70
  3020
  9
$CMLSTYLE
  2
Standard
  9
$CMLJUST
 70
     0
  9
$CMLSCALE
 40
1.0
  9
$PROXYGRAPHICS
 70
     1
  9
$MEASUREMENT
 70
     0
  9
$CELWEIGHT
370
    -1
  9
$ENDCAPS
280
     0
  9
$JOINSTYLE
280
     0
  9
$LWDISPLAY
290
     1
  9
$INSUNITS
 70
     1
  9
$HYPERLINKBASE
  1

  9
$STYLESHEET
  1

  9
$XEDIT
290
     1
  9
$CEPSNTYPE
380
     0
  9
$PSTYLEMODE
290
     1
  9
$FINGERPRINTGUID
  2
{12B44241-43C6-4D5E-999C-346D78AFDCD3}
  9
$VERSIONGUID
  2
{FAEB1C32-E019-11D5-929B-00C0DF256EC4}
  9
$EXTNAMES
290
     1
  9
$PSVPSCALE
 40
0.0
  9
$OLESTARTUP
290
     0
  0
ENDSEC
  0
SECTION
  2
CLASSES
  0
CLASS
  1
ACDBDICTIONARYWDFLT
  2
AcDbDictionaryWithDefault
  3
ObjectDBX Classes
 90
        0
280
     0
281
     0
  0
CLASS
  1
VISUALSTYLE
  2
AcDbVisualStyle
  3
ObjectDBX Classes
 90
     4095
280
     0
281
     0
  0
CLASS
  1
MATERIAL
  2
AcDbMaterial
  3
ObjectDBX Classes
 90
     1153
280
     0
281
     0
  0
CLASS
  1
SCALE
  2
AcDbScale
  3
ObjectDBX Classes
 90
     1153
280
     0
281
     0
  0
CLASS
  1
TABLESTYLE
  2
AcDbTableStyle
  3
ObjectDBX Classes
 90
     4095
280
     0
281
     0
  0
CLASS
  1
MLEADERSTYLE
  2
AcDbMLeaderStyle
  3
ACDB_MLEADERSTYLE_CLASS
 90
     4095
280
     0
281
     0
  0
CLASS
  1
SUN
  2
AcDbSun
  3
SCENEOE
 90
     1153
280
     0
281
     0
  0
CLASS
  1
ACDBPLACEHOLDER
  2
AcDbPlaceHolder
  3
ObjectDBX Classes
 90
        0
280
     0
281
     0
  0
CLASS
  1
LAYOUT
  2
AcDbLayout
  3
ObjectDBX Classes
 90
        0
280
     0
281
     0
  0
ENDSEC
  0
SECTION
  2
TABLES
  0
TABLE
  2
VPORT
  5
8
330
0
100
AcDbSymbolTable
 70
     1
  0
VPORT
  5
29
330
8
100
AcDbSymbolTableRecord
100
AcDbViewportTableRecord
  2
*Active
 70
     0
 10
0.0
 20
0.0
 11
1.0
 21
1.0
 12
22.0
 22
17.0
 13
0.0
 23
0.0
 14
0.5
 24
0.5
 15
0.5
 25
0.5
 16
0.0
 26
0.0
 36
1.0
 17
0.0
 27
0.0
 37
0.0
 40
34.0
 41
1.2941176471
 42
50.0
 43
0.0
 44
0.0
 50
0.0
 51
0.0
 71
     0
 72
  2000
 73
     1
 74
     3
 75
     0
 76
     0
 77
     0
 78
     0
281
     0
 65
     1
110
0.0
120
0.0
130
0.0
111
1.0
121
0.0
131
0.0
112
0.0
122
1.0
132
0.0
 79
     0
146
0.0
  0
ENDTAB
  0
TABLE
  2
LTYPE
  5
5
330
0
100
AcDbSymbolTable
 70
     6
  0
LTYPE
  5
14
330
5
100
AcDbSymbolTableRecord
100
AcDbLinetypeTableRecord
  2
ByBlock
 70
     0
  3

 72
    65
 73
     0
 40
0.0
  0
LTYPE
  5
15
330
5
100
AcDbSymbolTableRecord
100
AcDbLinetypeTableRecord
  2
ByLayer
 70
     0
  3

 72
    65
 73
     0
 40
0.0
  0
LTYPE
  5
16
330
5
100
AcDbSymbolTableRecord
100
AcDbLinetypeTableRecord
  2
Continuous
 70
     0
  3
Solid line
 72
    65
 73
     0
 40
0.0
  0
LTYPE
  5
6E
330
5
100
AcDbSymbolTableRecord
100
AcDbLinetypeTableRecord
  2
HIDDEN
 70
     0
  3
Hidden __ __ __ __ __ __ __ __ __ __ __ __ __ __
 72
    65
 73
     2
 40
0.075
 49
0.05
 74
     0
 49
-0.025
 74
     0
  0
LTYPE
  5
6F
330
5
100
AcDbSymbolTableRecord
100
AcDbLinetypeTableRecord
  2
PHANTOM
 70
     0
  3
Phantom ______  __  __  ______  __  __  ______
 72
    65
 73
     6
 40
0.5
 49
0.25
 74
     0
 49
-0.05
 74
     0
 49
0.05
 74
     0
 49
-0.05
 74
     0
 49
0.05
 74
     0
 49
-0.05
 74
     0
  0
LTYPE
  5
70
330
5
100
AcDbSymbolTableRecord
100
AcDbLinetypeTableRecord
  2
CENTER
 70
     0
  3
Center ____ _ ____ _ ____ _ ____ _ ____ _ ____
 72
    65
 73
     4
 40
0.4
 49
0.25
 74
     0
 49
-0.05
 74
     0
 49
0.05
 74
     0
 49
-0.05
 74
     0
  0
LTYPE
  5
71
330
5
100
AcDbSymbolTableRecord
100
AcDbLinetypeTableRecord
  2
CENTERX2
 70
     0
  3
Center (2x) ________  __  ________  __  _____
 72
    65
 73
     4
 40
0.8
 49
0.5
 74
     0
 49
-0.1
 74
     0
 49
0.1
 74
     0
 49
-0.1
 74
     0
  0
LTYPE
  5
72
330
5
100
AcDbSymbolTableRecord
100
AcDbLinetypeTableRecord
  2
DOT2
 70
     0
  3
Dot (.5x) ........................................
 72
    65
 73
     2
 40
0.025
 49
0.0
 74
     0
 49
-0.025
 74
     0
  0
ENDTAB
  0
TABLE
  2
LAYER
  5
2
330
0
100
AcDbSymbolTable
 70
     2
  0
LAYER
  5
10
330
2
100
AcDbSymbolTableRecord
100
AcDbLayerTableRecord
  2
0
 70
     0
 62
     7
  6
Continuous
370
    -3
390
F
  0
LAYER
  5
73
330
2
100
AcDbSymbolTableRecord
100
AcDbLayerTableRecord
  2
FORMAT
 70
     0
 62
     7
  6
Continuous
370
    -3
390
F
  0
ENDTAB
  0
TABLE
  2
STYLE
  5
3
330
0
100
AcDbSymbolTable
 70
     1
  0
STYLE
  5
11
330
3
100
AcDbSymbolTableRecord
100
AcDbTextStyleTableRecord
  2
Standard
 70
     0
 40
0.0
 41
1.0
 50
0.0
 71
     0
 42
0.125
  3
txt
  4

  0
ENDTAB
  0
TABLE
  2
VIEW
  5
6
330
0
100
AcDbSymbolTable
 70
     0
  0
ENDTAB
  0
TABLE
  2
UCS
  5
7
330
0
100
AcDbSymbolTable
 70
     0
  0
ENDTAB
  0
TABLE
  2
APPID
  5
9
330
0
100
AcDbSymbolTable
 70
     1
  0
APPID
  5
12
330
9
100
AcDbSymbolTableRecord
100
AcDbRegAppTableRecord
  2
ACAD
 70
     0
  0
ENDTAB
  0
TABLE
  2
DIMSTYLE
  5
A
330
0
100
AcDbSymbolTable
 70
     1
100
AcDbDimStyleTable
  0
DIMSTYLE
105
27
330
A
100
AcDbSymbolTableRecord
100
AcDbDimStyleTableRecord
  2
Standard
 70
     0
178
     0
340
11
  0
ENDTAB
  0
TABLE
  2
BLOCK_RECORD
  5
1
330
0
100
AcDbSymbolTable
 70
     1
  0
BLOCK_RECORD
  5
1F
330
1
100
AcDbSymbolTableRecord
100
AcDbBlockTableRecord
  2
*Model_Space
340
22
  0
BLOCK_RECORD
  5
1B
330
1
100
AcDbSymbolTableRecord
100
AcDbBlockTableRecord
  2
*Paper_Space
340
1E
  0
BLOCK_RECORD
  5
23
330
1
100
AcDbSymbolTableRecord
100
AcDbBlockTableRecord
  2
*Paper_Space0
340
26
  0
ENDTAB
  0
ENDSEC
  0
SECTION
  2
BLOCKS
  0
BLOCK
  5
20
330
1F
100
AcDbEntity
  8
0
100
AcDbBlockBegin
  2
*Model_Space
 70
     0
 10
0.0
 20
0.0
 30
0.0
  3
*Model_Space
  1

  0
ENDBLK
  5
21
330
1F
100
AcDbEntity
  8
0
100
AcDbBlockEnd
  0
BLOCK
  5
1C
330
1B
100
AcDbEntity
 67
     1
  8
0
100
AcDbBlockBegin
  2
*Paper_Space
 70
     0
 10
0.0
 20
0.0
 30
0.0
  3
*Paper_Space
  1

  0
ENDBLK
  5
1D
330
1B
100
AcDbEntity
 67
     1
  8
0
100
AcDbBlockEnd
  0
BLOCK
  5
24
330
23
100
AcDbEntity
  8
0
100
AcDbBlockBegin
  2
*Paper_Space0
 70
     0
 10
0.0
 20
0.0
 30
0.0
  3
*Paper_Space0
  1

  0
ENDBLK
  5
25
330
23
100
AcDbEntity
  8
0
100
AcDbBlockEnd
  0
ENDSEC
  0
SECTION
  2
ENTITIES
  0
SPLINE
  5
74
330
1F
100
AcDbEntity
  8
0
  6
Continuous
 62
     5
370
     0
100
AcDbSpline
210
0.0
220
0.0
230
1.0
 70
     8
 71
     3
 72
   154
 73
   150
 74
     0
 42
0.000000001
 43
0.00000001
 40
0.0
 40
0.0
 40
0.0
 40
0.0
 40
0.1250000000000094
 40
0.1250000000000094
 40
0.1875000000000142
 40
0.1875000000000142
 40
0.250000000000019
 40
0.250000000000019
 40
0.2656250000000201
 40
0.2656250000000201
 40
0.2812500000000212
 40
0.2812500000000212
 40
0.2890625000000219
 40
0.2890625000000219
 40
0.2968750000000224
 40
0.2968750000000224
 40
0.304687500000023
 40
0.304687500000023
 40
0.3125000000000235
 40
0.3125000000000235
 40
0.3281250000000246
 40
0.3281250000000246
 40
0.3437500000000256
 40
0.3437500000000256
 40
0.3593750000000269
 40
0.3593750000000269
 40
0.375000000000028
 40
0.375000000000028
 40
0.3906250000000292
 40
0.3906250000000292
 40
0.4062500000000303
 40
0.4062500000000303
 40
0.4140625000000309
 40
0.4140625000000309
 40
0.4218750000000315
 40
0.4218750000000315
 40
0.4296875000000321
 40
0.4296875000000321
 40
0.4375000000000326
 40
0.4375000000000326
 40
0.4414062500000329
 40
0.4414062500000329
 40
0.443359375000033
 40
0.443359375000033
 40
0.4453125000000331
 40
0.4453125000000331
 40
0.4472656250000332
 40
0.4472656250000332
 40
0.4482421875000333
 40
0.4482421875000333
 40
0.4492187500000333
 40
0.4492187500000333
 40
0.4501953125000334
 40
0.4501953125000334
 40
0.4511718750000335
 40
0.4511718750000335
 40
0.4531250000000334
 40
0.4531250000000334
 40
0.4550781250000333
 40
0.4550781250000333
 40
0.4570312500000332
 40
0.4570312500000332
 40
0.460937500000033
 40
0.460937500000033
 40
0.4687500000000325
 40
0.4687500000000325
 40
0.4765625000000321
 40
0.4765625000000321
 40
0.4843750000000318
 40
0.4843750000000318
 40
0.4921875000000313
 40
0.4921875000000313
 40
0.5000000000000309
 40
0.5000000000000309
 40
0.5078125000000304
 40
0.5078125000000304
 40
0.51562500000003
 40
0.51562500000003
 40
0.531250000000029
 40
0.531250000000029
 40
0.546875000000028
 40
0.546875000000028
 40
0.5625000000000271
 40
0.5625000000000271
 40
0.5781250000000262
 40
0.5781250000000262
 40
0.5859375000000256
 40
0.5859375000000256
 40
0.5937500000000252
 40
0.5937500000000252
 40
0.6093750000000243
 40
0.6093750000000243
 40
0.6250000000000233
 40
0.6250000000000233
 40
0.6562500000000215
 40
0.6562500000000215
 40
0.6718750000000207
 40
0.6718750000000207
 40
0.6875000000000197
 40
0.6875000000000197
 40
0.7031250000000187
 40
0.7031250000000187
 40
0.7187500000000178
 40
0.7187500000000178
 40
0.7343750000000169
 40
0.7343750000000169
 40
0.7500000000000159
 40
0.7500000000000159
 40
0.7578125000000153
 40
0.7578125000000153
 40
0.7656250000000149
 40
0.7656250000000149
 40
0.7812500000000139
 40
0.7812500000000139
 40
0.7968750000000129
 40
0.7968750000000129
 40
0.8125000000000118
 40
0.8125000000000118
 40
0.8437500000000097
 40
0.8437500000000097
 40
0.8750000000000075
 40
0.8750000000000075
 40
0.8906250000000067
 40
0.8906250000000067
 40
0.9062500000000057
 40
0.9062500000000057
 40
0.9218750000000047
 40
0.9218750000000047
 40
0.9296875000000041
 40
0.9296875000000041
 40
0.9375000000000036
 40
0.9375000000000036
 40
0.9531250000000027
 40
0.9531250000000027
 40
0.9609375000000021
 40
0.9609375000000021
 40
0.9687500000000017
 40
0.9687500000000017
 40
0.9726562500000014
 40
0.9726562500000014
 40
0.9765625000000012
 40
0.9765625000000012
 40
0.980468750000001
 40
0.980468750000001
 40
0.9843750000000009
 40
0.9843750000000009
 40
0.9921875000000004
 40
0.9921875000000004
 40
1.0
 40
1.0
 40
1.0
 40
1.0
 10
4.119979711829533
 20
26.73254708748558
 30
0.0
 10
3.868058878736029
 20
27.24237930670545
 30
0.0
 10
3.612376857022387
 20
27.75030039241724
 30
0.0
 10
3.217510476421224
 20
28.50641849403702
 30
0.0
 10
3.083989328111041
 20
28.75746499568511
 30
0.0
 10
2.812008226766419
 20
29.25675105418271
 30
0.0
 10
2.673540970052372
 20
29.50501356788378
 30
0.0
 10
2.496418960854756
 20
29.81309098405454
 30
0.0
 10
2.460792592596628
 20
29.87459389242833
 30
0.0
 10
2.389102614193963
 20
29.9973559941144
 30
0.0
 10
2.352980090557012
 20
30.05858234939651
 30
0.0
 10
2.300415454413622
 20
30.15132438844934
 30
0.0
 10
2.283211654466503
 20
30.18241551121585
 30
0.0
 10
2.249470529871471
 20
30.2449692468097
 30
0.0
 10
2.232902735034262
 20
30.2764148757222
 30
0.0
 10
2.199721385121965
 20
30.33928062746989
 30
0.0
 10
2.183107864687029
 20
30.37070076961357
 30
0.0
 10
2.149230889005945
 20
30.43317878426932
 30
0.0
 10
2.131890271094755
 20
30.46419364674551
 30
0.0
 10
2.078902520034434
 20
30.5566998489378
 30
0.0
 10
2.042465755114117
 20
30.617751052853
 30
0.0
 10
1.970912130863336
 20
30.74058916949932
 30
0.0
 10
1.935714063552725
 20
30.80233081735002
 30
0.0
 10
1.86585668493988
 20
30.92611441297338
 30
0.0
 10
1.831189712071334
 20
30.98815209022894
 30
0.0
 10
1.76171636106364
 20
31.11214974102992
 30
0.0
 10
1.726859480921605
 20
31.17408312743311
 30
0.0
 10
1.656586133700663
 20
31.29762932304285
 30
0.0
 10
1.621247381120504
 20
31.35928542681174
 30
0.0
 10
1.550533710527791
 20
31.48257669631512
 30
0.0
 10
1.515146279625293
 20
31.54420461768538
 30
0.0
 10
1.462040512427752
 20
31.63663224545862
 30
0.0
 10
1.444350217909121
 20
31.66744818670336
 30
0.0
 10
1.408838517965922
 20
31.72900416225927
 30
0.0
 10
1.391004398703842
 20
31.75973683586747
 30
0.0
 10
1.354709175802509
 20
31.82083918916164
 30
0.0
 10
1.33625325184976
 20
31.85123193249143
 30
0.0
 10
1.297841636212726
 20
31.91106266023881
 30
0.0
 10
1.277953290473839
 20
31.94045924719109
 30
0.0
 10
1.245811587816688
 20
31.9827989850023
 30
0.0
 10
1.23471101618789
 20
31.99661833392395
 30
0.0
 10
1.216989844460023
 20
32.0165338430195
 30
0.0
 10
1.210901652797147
 20
32.02303467112648
 30
0.0
 10
1.198172360310028
 20
32.03561607741145
 30
0.0
 10
1.191547996894159
 20
32.04168417887939
 30
0.0
 10
1.177667210469071
 20
32.05286823558035
 30
0.0
 10
1.17040948672604
 20
32.05803322793061
 30
0.0
 10
1.158514723106256
 20
32.06442399763837
 30
0.0
 10
1.154378166415001
 20
32.06631206838615
 30
0.0
 10
1.145884448369226
 20
32.06921262737964
 30
0.0
 10
1.141434109241911
 20
32.07025279592333
 30
0.0
 10
1.132425028538234
 20
32.07093328117521
 30
0.0
 10
1.127823970394324
 20
32.07054296932231
 30
0.0
 10
1.119177150759667
 20
32.0680480254702
 30
0.0
 10
1.115067138133778
 20
32.06592881481074
 30
0.0
 10
1.10420683391325
 20
32.05800616490092
 30
0.0
 10
1.098595410640707
 20
32.05067690096021
 30
0.0
 10
1.089476072133305
 20
32.03507033903781
 30
0.0
 10
1.085960919421448
 20
32.02679769649131
 30
0.0
 10
1.080007990339387
 20
32.0099370635301
 30
0.0
 10
1.077580189570537
 20
32.0012892890635
 30
0.0
 10
1.071352282213291
 20
31.97506078147864
 30
0.0
 10
1.068618995560129
 20
31.9574128679183
 30
0.0
 10
1.062516596898752
 20
31.90422925439483
 30
0.0
 10
1.061276919679386
 20
31.8683557854415
 30
0.0
 10
1.061388172846543
 20
31.79691726989478
 30
0.0
 10
1.062807060109869
 20
31.76129422775681
 30
0.0
 10
1.066848530247793
 20
31.69013309740215
 30
0.0
 10
1.069506449018552
 20
31.65459750310733
 30
0.0
 10
1.075396206413144
 20
31.58356682039246
 30
0.0
 10
1.078611954626004
 20
31.54807059635027
 30
0.0
 10
1.085400585933446
 20
31.47710335398224
 30
0.0
 10
1.089025416065202
 20
31.44163600195227
 30
0.0
 10
1.096982866605295
 20
31.37075125201444
 30
0.0
 10
1.101308163935876
 20
31.33533032437724
 30
0.0
 10
1.110955672363085
 20
31.26469954492823
 30
0.0
 10
1.116277530108084
 20
31.22947571565394
 30
0.0
 10
1.13341482547238
 20
31.12401961157596
 30
0.0
 10
1.146268814742414
 20
31.05397824137118
 30
0.0
 10
1.171901539255699
 20
30.91388166789548
 30
0.0
 10
1.184831939944735
 20
30.8438543434804
 30
0.0
 10
1.211634051689427
 20
30.7039727245232
 30
0.0
 10
1.225570844181554
 20
30.63413039312747
 30
0.0
 10
1.254500452435019
 20
30.49463984651813
 30
0.0
 10
1.269413675301694
 20
30.42495265997368
 30
0.0
 10
1.292644802044321
 20
30.3206633826063
 30
0.0
 10
1.300546685625255
 20
30.2859569702029
 30
0.0
 10
1.316783634267272
 20
30.21669937094106
 30
0.0
 10
1.325231855974777
 20
30.18218873245037
 30
0.0
 10
1.350588471453323
 20
30.07866109925078
 30
0.0
 10
1.366674880567809
 20
30.00934955590493
 30
0.0
 10
1.400258285279271
 20
29.87123193646929
 30
0.0
 10
1.417891138921708
 20
29.80247454352944
 30
0.0
 10
1.473359054946731
 20
29.59712306320937
 30
0.0
 10
1.513571124165902
 20
29.46138074856746
 30
0.0
 10
1.575053157655114
 20
29.25818435718467
 30
0.0
 10
1.595872109559152
 20
29.19056866544543
 30
0.0
 10
1.639010004910275
 20
29.05587478644846
 30
0.0
 10
1.661370360190119
 20
28.98881143863879
 30
0.0
 10
1.706858530668131
 20
28.8549597533136
 30
0.0
 10
1.729986004554274
 20
28.78817129349182
 30
0.0
 10
1.776262416916817
 20
28.6546020654196
 30
0.0
 10
1.79930482113881
 20
28.58778312185962
 30
0.0
 10
1.845144007942896
 20
28.45405721911905
 30
0.0
 10
1.86821763385321
 20
28.3872494635247
 30
0.0
 10
1.918362283027401
 20
28.25506637324358
 30
0.0
 10
1.945514197672045
 20
28.18972002504351
 30
0.0
 10
1.987225515523321
 20
28.09205290919281
 30
0.0
 10
2.00126969966596
 20
28.0595475187551
 30
0.0
 10
2.02938650665376
 20
27.99454692856796
 30
0.0
 10
2.043485334322266
 20
27.96206111901139
 30
0.0
 10
2.086181983271848
 20
27.86474708514685
 30
0.0
 10
2.115230783039198
 20
27.80008046372883
 30
0.0
 10
2.175425579149161
 20
27.67149872684309
 30
0.0
 10
2.206431478423572
 20
27.60753340922155
 30
0.0
 10
2.269631000162621
 20
27.48002838072
 30
0.0
 10
2.301823790098209
 20
27.41648837151318
 30
0.0
 10
2.400413875128339
 20
27.22658921858505
 30
0.0
 10
2.468946420395162
 20
27.1007697893954
 30
0.0
 10
2.612296988556566
 20
26.85401250827286
 30
0.0
 10
2.687151554946542
 20
26.73284040520103
 30
0.0
 10
2.802829175321033
 20
26.55343903888162
 30
0.0
 10
2.841806509132337
 20
26.49392877878379
 30
0.0
 10
2.922246647884574
 20
26.3766332658798
 30
0.0
 10
2.963873989825949
 20
26.31896220773143
 30
0.0
 10
3.051378924584326
 20
26.20656992001991
 30
0.0
 10
3.097136717881491
 20
26.15176554523639
 30
0.0
 10
3.168819578848583
 20
26.07167313648337
 30
0.0
 10
3.193220347022283
 20
26.04532718325269
 30
0.0
 10
3.243074098684673
 20
25.99336555247248
 30
0.0
 10
3.268569231512076
 20
25.96770581958271
 30
0.0
 10
3.346320896302678
 20
25.89232181403379
 30
0.0
 10
3.399879965378518
 20
25.8441594277454
 30
0.0
 10
3.482335839195073
 20
25.77448611813303
 30
0.0
 10
3.510161770566337
 20
25.75167520319856
 30
0.0
 10
3.566637743065343
 20
25.70705380512225
 30
0.0
 10
3.595313666248171
 20
25.68527474161708
 30
0.0
 10
3.640725360055626
 20
25.65551697742884
 30
0.0
 10
3.656326050011461
 20
25.6460644688182
 30
0.0
 10
3.68847317432881
 20
25.6287303221379
 30
0.0
 10
3.704846162052169
 20
25.62094406284902
 30
0.0
 10
3.73828790021928
 20
25.607418255217
 30
0.0
 10
3.755355859978538
 20
25.60167638093345
 30
0.0
 10
3.790199356933619
 20
25.59227409842004
 30
0.0
 10
3.807972684255046
 20
25.58860718944789
 30
0.0
 10
3.862195117916296
 20
25.5802611862027
 30
0.0
 10
3.898408853646818
 20
25.57836821945687
 30
0.0
 10
3.970655799407914
 20
25.57970626450243
 30
0.0
 10
4.00674477821368
 20
25.58296615823249
 30
0.0
 10
4.042806178442024
 20
25.58829749730624
 30
0.0
  0
SPLINE
  5
75
330
1F
100
AcDbEntity
  8
0
  6
Continuous
 62
     5
370
     0
100
AcDbSpline
210
0.0
220
0.0
230
1.0
 70
     8
 71
     3
 72
    44
 73
    40
 74
     0
 42
0.000000001
 43
0.00000001
 40
0.0
 40
0.0
 40
0.0
 40
0.0
 40
0.0625000000000032
 40
0.0625000000000032
 40
0.1250000000000067
 40
0.1250000000000067
 40
0.18750000000001
 40
0.18750000000001
 40
0.2187500000000117
 40
0.2187500000000117
 40
0.2500000000000129
 40
0.2500000000000129
 40
0.2812500000000141
 40
0.2812500000000141
 40
0.3125000000000153
 40
0.3125000000000153
 40
0.3437500000000165
 40
0.3437500000000165
 40
0.3593750000000167
 40
0.3593750000000167
 40
0.3750000000000168
 40
0.3750000000000168
 40
0.4062500000000159
 40
0.4062500000000159
 40
0.4375000000000149
 40
0.4375000000000149
 40
0.5000000000000129
 40
0.5000000000000129
 40
0.5625000000000109
 40
0.5625000000000109
 40
0.6250000000000089
 40
0.6250000000000089
 40
0.7500000000000058
 40
0.7500000000000058
 40
0.8750000000000027
 40
0.8750000000000027
 40
0.9375000000000013
 40
0.9375000000000013
 40
1.0
 40
1.0
 40
1.0
 40
1.0
 10
4.042806178442026
 20
25.58829749730624
 30
0.0
 10
4.073862869907028
 20
25.59288886209261
 30
0.0
 10
4.104556099895172
 20
25.59893180688058
 30
0.0
 10
4.165186996473563
 20
25.61403523969672
 30
0.0
 10
4.195151026686422
 20
25.62311464528462
 30
0.0
 10
4.253974811376052
 20
25.64517466449675
 30
0.0
 10
4.282423554884267
 20
25.65799405833787
 30
0.0
 10
4.323147148637278
 20
25.6808450639232
 30
0.0
 10
4.336393677582284
 20
25.68907144424455
 30
0.0
 10
4.362087824561336
 20
25.70700846000056
 30
0.0
 10
4.374585347764051
 20
25.71677375447963
 30
0.0
 10
4.398021531508958
 20
25.73763908039044
 30
0.0
 10
4.409022455798878
 20
25.74877299887079
 30
0.0
 10
4.429359439695649
 20
25.77266876155686
 30
0.0
 10
4.438740154439556
 20
25.78553432655526
 30
0.0
 10
4.455028416611466
 20
25.81224666623359
 30
0.0
 10
4.462012126716583
 20
25.82615880952409
 30
0.0
 10
4.470715242164836
 20
25.84787622918649
 30
0.0
 10
4.47332080884139
 20
25.85525693362898
 30
0.0
 10
4.477935139001883
 20
25.87030427902844
 30
0.0
 10
4.479943942322492
 20
25.8779862510111
 30
0.0
 10
4.484988792739296
 20
25.90102134878477
 30
0.0
 10
4.48709486996384
 20
25.91650233954217
 30
0.0
 10
4.489129370832847
 20
25.94767956305865
 30
0.0
 10
4.489052559802587
 20
25.96343637152648
 30
0.0
 10
4.485993072524467
 20
26.01058802134285
 30
0.0
 10
4.480330333393435
 20
26.04116790230594
 30
0.0
 10
4.464383273574004
 20
26.10123760223123
 30
0.0
 10
4.454029468554012
 20
26.13080363543098
 30
0.0
 10
4.430297103805524
 20
26.18879225533296
 30
0.0
 10
4.416979438301727
 20
26.21708108643859
 30
0.0
 10
4.3742187595341
 20
26.30058293391003
 30
0.0
 10
4.341990331668691
 20
26.35441554348273
 30
0.0
 10
4.275810440168439
 20
26.46084449527643
 30
0.0
 10
4.24170624868365
 20
26.51346531006164
 30
0.0
 10
4.193303595106661
 20
26.59400829529318
 30
0.0
 10
4.177668368021679
 20
26.62114802744791
 30
0.0
 10
4.147920922677213
 20
26.67631894281367
 30
0.0
 10
4.133890569105041
 20
26.70439804326097
 30
0.0
 10
4.119979711829533
 20
26.73254708748558
 30
0.0
  0
SPLINE
  5
76
330
1F
100
AcDbEntity
  8
0
  6
Continuous
 62
     5
370
     0
100
AcDbSpline
210
0.0
220
0.0
230
1.0
 70
     8
 71
     3
 72
   200
 73
   196
 74
     0
 42
0.000000001
 43
0.00000001
 40
0.0
 40
0.0
 40
0.0
 40
0.0
 40
0.007812500000001
 40
0.007812500000001
 40
0.0156250000000019
 40
0.0156250000000019
 40
0.0195312500000023
 40
0.0195312500000023
 40
0.0234375000000028
 40
0.0234375000000028
 40
0.0312500000000037
 40
0.0312500000000037
 40
0.0390625000000047
 40
0.0390625000000047
 40
0.0468750000000056
 40
0.0468750000000056
 40
0.0625000000000075
 40
0.0625000000000075
 40
0.0781250000000094
 40
0.0781250000000094
 40
0.0859375000000104
 40
0.0859375000000104
 40
0.0937500000000113
 40
0.0937500000000113
 40
0.125000000000015
 40
0.125000000000015
 40
0.1406250000000169
 40
0.1406250000000169
 40
0.1562500000000187
 40
0.1562500000000187
 40
0.1718750000000206
 40
0.1718750000000206
 40
0.1875000000000224
 40
0.1875000000000224
 40
0.2031250000000243
 40
0.2031250000000243
 40
0.2187500000000261
 40
0.2187500000000261
 40
0.234375000000028
 40
0.234375000000028
 40
0.2500000000000299
 40
0.2500000000000299
 40
0.2578125000000308
 40
0.2578125000000308
 40
0.2656250000000316
 40
0.2656250000000316
 40
0.2734375000000326
 40
0.2734375000000326
 40
0.2812500000000335
 40
0.2812500000000335
 40
0.2968750000000352
 40
0.2968750000000352
 40
0.3125000000000371
 40
0.3125000000000371
 40
0.3281250000000389
 40
0.3281250000000389
 40
0.3437500000000407
 40
0.3437500000000407
 40
0.3593750000000425
 40
0.3593750000000425
 40
0.3750000000000442
 40
0.3750000000000442
 40
0.3906250000000461
 40
0.3906250000000461
 40
0.4062500000000479
 40
0.4062500000000479
 40
0.4218750000000497
 40
0.4218750000000497
 40
0.4375000000000515
 40
0.4375000000000515
 40
0.4687500000000551
 40
0.4687500000000551
 40
0.484375000000057
 40
0.484375000000057
 40
0.5000000000000587
 40
0.5000000000000587
 40
0.5156250000000605
 40
0.5156250000000605
 40
0.5234375000000615
 40
0.5234375000000615
 40
0.5312500000000624
 40
0.5312500000000624
 40
0.535156250000063
 40
0.535156250000063
 40
0.5390625000000634
 40
0.5390625000000634
 40
0.5429687500000638
 40
0.5429687500000638
 40
0.5468750000000644
 40
0.5468750000000644
 40
0.5507812500000648
 40
0.5507812500000648
 40
0.5527343750000651
 40
0.5527343750000651
 40
0.5546875000000653
 40
0.5546875000000653
 40
0.5566406250000655
 40
0.5566406250000655
 40
0.5576171875000656
 40
0.5576171875000656
 40
0.5585937500000658
 40
0.5585937500000658
 40
0.560546875000066
 40
0.560546875000066
 40
0.5625000000000661
 40
0.5625000000000661
 40
0.5634765625000661
 40
0.5634765625000661
 40
0.563964843750066
 40
0.563964843750066
 40
0.564453125000066
 40
0.564453125000066
 40
0.5654296875000657
 40
0.5654296875000657
 40
0.5664062500000655
 40
0.5664062500000655
 40
0.5683593750000652
 40
0.5683593750000652
 40
0.5703125000000648
 40
0.5703125000000648
 40
0.5742187500000643
 40
0.5742187500000643
 40
0.5781250000000636
 40
0.5781250000000636
 40
0.5859375000000624
 40
0.5859375000000624
 40
0.5937500000000611
 40
0.5937500000000611
 40
0.6015625000000598
 40
0.6015625000000598
 40
0.6093750000000586
 40
0.6093750000000586
 40
0.6250000000000563
 40
0.6250000000000563
 40
0.640625000000054
 40
0.640625000000054
 40
0.6484375000000528
 40
0.6484375000000528
 40
0.6562500000000516
 40
0.6562500000000516
 40
0.6640625000000505
 40
0.6640625000000505
 40
0.6718750000000493
 40
0.6718750000000493
 40
0.6796875000000482
 40
0.6796875000000482
 40
0.6875000000000471
 40
0.6875000000000471
 40
0.6953125000000459
 40
0.6953125000000459
 40
0.7031250000000447
 40
0.7031250000000447
 40
0.7187500000000423
 40
0.7187500000000423
 40
0.7265625000000411
 40
0.7265625000000411
 40
0.7343750000000397
 40
0.7343750000000397
 40
0.7421875000000385
 40
0.7421875000000385
 40
0.7500000000000372
 40
0.7500000000000372
 40
0.7656250000000349
 40
0.7656250000000349
 40
0.7734375000000336
 40
0.7734375000000336
 40
0.7812500000000325
 40
0.7812500000000325
 40
0.7968750000000301
 40
0.7968750000000301
 40
0.8125000000000276
 40
0.8125000000000276
 40
0.8281250000000253
 40
0.8281250000000253
 40
0.8437500000000229
 40
0.8437500000000229
 40
0.8750000000000181
 40
0.8750000000000181
 40
0.8906250000000158
 40
0.8906250000000158
 40
0.9062500000000135
 40
0.9062500000000135
 40
0.9140625000000123
 40
0.9140625000000123
 40
0.9218750000000112
 40
0.9218750000000112
 40
0.937500000000009
 40
0.937500000000009
 40
0.9531250000000068
 40
0.9531250000000068
 40
0.9687500000000047
 40
0.9687500000000047
 40
0.9843750000000023
 40
0.9843750000000023
 40
1.0
 40
1.0
 40
1.0
 40
1.0
 10
7.828678820352828
 20
25.5541030630006
 30
0.0
 10
7.792584678804658
 20
25.55702239590535
 30
0.0
 10
7.756816183201742
 20
25.56168503646592
 30
0.0
 10
7.68610134554767
 20
25.57541162091053
 30
0.0
 10
7.651176789981553
 20
25.58459219620557
 30
0.0
 10
7.599441585413215
 20
25.60185147796327
 30
0.0
 10
7.582235661120087
 20
25.60820688673819
 30
0.0
 10
7.548451394834948
 20
25.62189420958304
 30
0.0
 10
7.531863745299575
 20
25.62921507176558
 30
0.0
 10
7.483144678835121
 20
25.65281367857786
 30
0.0
 10
7.452085600861436
 20
25.67077204230351
 30
0.0
 10
7.392861455783962
 20
25.71122439713966
 30
0.0
 10
7.364614737352402
 20
25.73359042052172
 30
0.0
 10
7.309297603788509
 20
25.78016602409864
 30
0.0
 10
7.282156932948578
 20
25.80432254710481
 30
0.0
 10
7.202203440411553
 20
25.87761450878913
 30
0.0
 10
7.150908485977888
 20
25.92810263610106
 30
0.0
 10
7.049779244596557
 20
26.03026264745011
 30
0.0
 10
7.000049568536461
 20
26.0820193104271
 30
0.0
 10
6.928264461413595
 20
26.16193110945081
 30
0.0
 10
6.904821697684925
 20
26.18896192090721
 30
0.0
 10
6.859194429129394
 20
26.24404326422231
 30
0.0
 10
6.836982633213816
 20
26.2720716787888
 30
0.0
 10
6.728570365365127
 20
26.41435870441628
 30
0.0
 10
6.650330537800853
 20
26.53506879495183
 30
0.0
 10
6.536690787381969
 20
26.71914869237513
 30
0.0
 10
6.499391044502675
 20
26.78106830660079
 30
0.0
 10
6.42657694440187
 20
26.90569326416767
 30
0.0
 10
6.391134818029248
 20
26.9684693027404
 30
0.0
 10
6.322376892782815
 20
27.09504289065432
 30
0.0
 10
6.288962687162977
 20
27.15879316432859
 30
0.0
 10
6.22327967189524
 20
27.2868439723116
 30
0.0
 10
6.191017804229171
 20
27.35114784162403
 30
0.0
 10
6.127468837640802
 20
27.48022386971427
 30
0.0
 10
6.09620591902108
 20
27.54500764497159
 30
0.0
 10
6.033996775894628
 20
27.67472733876931
 30
0.0
 10
6.003101802547928
 20
27.73968787892237
 30
0.0
 10
5.942067460483139
 20
27.86997195987878
 30
0.0
 10
5.911906209218133
 20
27.93528498806943
 30
0.0
 10
5.852636536957425
 20
28.06641683551919
 30
0.0
 10
5.823547655316922
 20
28.13224504169623
 30
0.0
 10
5.781685038571604
 20
28.23183801717231
 30
0.0
 10
5.76802653726592
 20
28.26517773520245
 30
0.0
 10
5.741443112091822
 20
28.33220958981155
 30
0.0
 10
5.728565818761006
 20
28.36592460861684
 30
0.0
 10
5.702551926250428
 20
28.43323007288816
 30
0.0
 10
5.689579646187751
 20
28.46690397133256
 30
0.0
 10
5.664025945257051
 20
28.53441984929011
 30
0.0
 10
5.651470757009485
 20
28.56825370417427
 30
0.0
 10
5.614485520232106
 20
28.66998827070575
 30
0.0
 10
5.590765734999789
 20
28.73813223662432
 30
0.0
 10
5.543378729924025
 20
28.87443817130005
 30
0.0
 10
5.519604946619998
 20
28.94256364370838
 30
0.0
 10
5.47346905511217
 20
29.079298065566
 30
0.0
 10
5.450880378003438
 20
29.14782941864514
 30
0.0
 10
5.405950255184409
 20
29.28497679776035
 30
0.0
 10
5.383805079118711
 20
29.35366847478881
 30
0.0
 10
5.340828687937139
 20
29.49146349023318
 30
0.0
 10
5.319915290703381
 20
29.56052076588899
 30
0.0
 10
5.27912698187844
 20
29.69892396921767
 30
0.0
 10
5.259261430919882
 20
29.76827249872287
 30
0.0
 10
5.220932213358981
 20
29.90735921814901
 30
0.0
 10
5.202404975279433
 20
29.97707973807596
 30
0.0
 10
5.165743113725282
 20
30.11662990702388
 30
0.0
 10
5.147492054983795
 20
30.1864271923096
 30
0.0
 10
5.112353818369524
 20
30.32640086004682
 30
0.0
 10
5.095490188090825
 20
30.39657348143615
 30
0.0
 10
5.063164721938159
 20
30.53715183990763
 30
0.0
 10
5.048094276484966
 20
30.60765164500759
 30
0.0
 10
5.002934143584984
 20
30.81916093387215
 30
0.0
 10
4.972122086276208
 20
30.96003112302868
 30
0.0
 10
4.930837180504276
 20
31.17228767208852
 30
0.0
 10
4.91783035138627
 20
31.24318540440495
 30
0.0
 10
4.893542799541271
 20
31.38531371419941
 30
0.0
 10
4.882142293631444
 20
31.45652119388171
 30
0.0
 10
4.861395352161448
 20
31.59933223970992
 30
0.0
 10
4.852320451757183
 20
31.67099783243392
 30
0.0
 10
4.839324471179943
 20
31.77857753097408
 30
0.0
 10
4.835077251182149
 20
31.814447407083
 30
0.0
 10
4.826574282168944
 20
31.88618615556113
 30
0.0
 10
4.822237863176918
 20
31.92204553426233
 30
0.0
 10
4.81583241984722
 20
31.9758462749464
 30
0.0
 10
4.813722320898907
 20
31.99378280305239
 30
0.0
 10
4.809789499546932
 20
32.02968967925094
 30
0.0
 10
4.807946570402174
 20
32.04768339798391
 30
0.0
 10
4.805261097083544
 20
32.08361222983166
 30
0.0
 10
4.804425414832069
 20
32.10154764477613
 30
0.0
 10
4.804852603081939
 20
32.13729844792864
 30
0.0
 10
4.806128862134794
 20
32.15511307037867
 30
0.0
 10
4.811159744941733
 20
32.19060056519636
 30
0.0
 10
4.814964166287876
 20
32.20836576831549
 30
0.0
 10
4.823023402903782
 20
32.2345668179989
 30
0.0
 10
4.826068533033281
 20
32.24314704759083
 30
0.0
 10
4.832982528102659
 20
32.25995512655233
 30
0.0
 10
4.836859678676881
 20
32.26817943146385
 30
0.0
 10
4.845887772133614
 20
32.28408313385947
 30
0.0
 10
4.851051543910528
 20
32.29175165161169
 30
0.0
 10
4.859909066558807
 20
32.30214757341555
 30
0.0
 10
4.863057117562818
 20
32.30544406673862
 30
0.0
 10
4.869827420844337
 20
32.31162767232038
 30
0.0
 10
4.873472606822852
 20
32.31451242593774
 30
0.0
 10
4.884803979817681
 20
32.32220479483623
 30
0.0
 10
4.892998013006635
 20
32.32615082095849
 30
0.0
 10
4.910134282712533
 20
32.33266031273041
 30
0.0
 10
4.918985624285388
 20
32.33520315447945
 30
0.0
 10
4.932219283135889
 20
32.33901697385224
 30
0.0
 10
4.936618748269998
 20
32.34033555884054
 30
0.0
 10
4.943214713178313
 20
32.34232985078089
 30
0.0
 10
4.945420028120785
 20
32.34296504168939
 30
0.0
 10
4.949922777769328
 20
32.34382637314606
 30
0.0
 10
4.952220847225786
 20
32.34404969513658
 30
0.0
 10
4.959265370151559
 20
32.34405220147604
 30
0.0
 10
4.963836532204785
 20
32.34327935135189
 30
0.0
 10
4.972704144705508
 20
32.34022313657668
 30
0.0
 10
4.976762773339311
 20
32.33795087605434
 30
0.0
 10
4.987974779488101
 20
32.32951834017231
 30
0.0
 10
4.99384286463757
 20
32.32224590488036
 30
0.0
 10
5.004438772967709
 20
32.30698518455635
 30
0.0
 10
5.009073784455469
 20
32.29901048384317
 30
0.0
 10
5.022308471491185
 20
32.27473819503448
 30
0.0
 10
5.03020705303484
 20
32.25807645012098
 30
0.0
 10
5.045906480502616
 20
32.22470219521567
 30
0.0
 10
5.053640405566108
 20
32.20795420696903
 30
0.0
 10
5.077206404926027
 20
32.15790650638286
 30
0.0
 10
5.093439846976646
 20
32.12482685100419
 30
0.0
 10
5.127855527600194
 20
32.05973174252061
 30
0.0
 10
5.145954391349441
 20
32.02767075994354
 30
0.0
 10
5.182611050051957
 20
31.96379940875875
 30
0.0
 10
5.201219724913557
 20
31.93201682474129
 30
0.0
 10
5.238333647712507
 20
31.86839517714812
 30
0.0
 10
5.256844599590706
 20
31.836559828762
 30
0.0
 10
5.311713018570044
 20
31.74068658459839
 30
0.0
 10
5.347620471648913
 20
31.67639698968411
 30
0.0
 10
5.419068388919619
 20
31.54761334482362
 30
0.0
 10
5.454753851832768
 20
31.48320007584697
 30
0.0
 10
5.508426521057697
 20
31.38666066149853
 30
0.0
 10
5.52631137747591
 20
31.35447749546027
 30
0.0
 10
5.562491667945641
 20
31.29033990236294
 30
0.0
 10
5.580750680483463
 20
31.25836518433028
 30
0.0
 10
5.617100333394135
 20
31.19432194559788
 30
0.0
 10
5.635076943499711
 20
31.16218989691979
 30
0.0
 10
5.670996200032321
 20
31.09790687788733
 30
0.0
 10
5.688870233131285
 20
31.06571768201515
 30
0.0
 10
5.724212150873501
 20
31.00111301885338
 30
0.0
 10
5.741657248781001
 20
30.96868485673038
 30
0.0
 10
5.776161921871994
 20
30.90361375197247
 30
0.0
 10
5.793319836132694
 20
30.87102559551765
 30
0.0
 10
5.827725989383596
 20
30.80589960387396
 30
0.0
 10
5.844977749778204
 20
30.77336373051267
 30
0.0
 10
5.879907081950914
 20
30.70852920972051
 30
0.0
 10
5.897587093413103
 20
30.67623192147449
 30
0.0
 10
5.951124934184231
 20
30.57961739216507
 30
0.0
 10
5.987536509688207
 20
30.51560865144115
 30
0.0
 10
6.042633185517571
 20
30.41986257260406
 30
0.0
 10
6.061070800846959
 20
30.38798735687447
 30
0.0
 10
6.098063070831414
 20
30.32430212978561
 30
0.0
 10
6.116623179105078
 20
30.29249515671886
 30
0.0
 10
6.153382198557883
 20
30.22867998224816
 30
0.0
 10
6.171667790975436
 20
30.19672060662144
 30
0.0
 10
6.208502399912058
 20
30.13294704577296
 30
0.0
 10
6.226911456367905
 20
30.10105572049834
 30
0.0
 10
6.281954112593663
 20
30.00528007356212
 30
0.0
 10
6.318572219471679
 20
29.94138721494983
 30
0.0
 10
6.373344710553351
 20
29.84546270061854
 30
0.0
 10
6.391552062349033
 20
29.81346023129753
 30
0.0
 10
6.428078058963967
 20
29.7495166177483
 30
0.0
 10
6.446383484338252
 20
29.71756818929239
 30
0.0
 10
6.501274477155994
 20
29.62170897222517
 30
0.0
 10
6.537858872005387
 20
29.55779753748655
 30
0.0
 10
6.61108309438383
 20
29.43000521272907
 30
0.0
 10
6.648007983331532
 20
29.36628139830565
 30
0.0
 10
6.721354333037186
 20
29.23855636859884
 30
0.0
 10
6.757653130302287
 20
29.1744875628249
 30
0.0
 10
6.828653954767945
 20
29.04547009314168
 30
0.0
 10
6.86350865646864
 20
28.9806055564991
 30
0.0
 10
6.968987999823556
 20
28.78651626453177
 30
0.0
 10
7.040864589302369
 20
28.6579813621193
 30
0.0
 10
7.149301364571539
 20
28.46552168520292
 30
0.0
 10
7.185641590863537
 20
28.40147570780431
 30
0.0
 10
7.25812182779312
 20
28.27327342943834
 30
0.0
 10
7.294229552071812
 20
28.2090993379222
 30
0.0
 10
7.348150029479645
 20
28.11270534387112
 30
0.0
 10
7.366133439143954
 20
28.08057947713024
 30
0.0
 10
7.401922297737835
 20
28.01622968306728
 30
0.0
 10
7.419705347237771
 20
27.98399341312892
 30
0.0
 10
7.472848112407603
 20
27.8871708812095
 30
0.0
 10
7.508209878197278
 20
27.822585748893
 30
0.0
 10
7.577737113627094
 20
27.69275629673951
 30
0.0
 10
7.612430918540824
 20
27.62780310215527
 30
0.0
 10
7.681459279326468
 20
27.49769875825381
 30
0.0
 10
7.715980494716676
 20
27.43265046275327
 30
0.0
 10
7.78410081792993
 20
27.30204576863646
 30
0.0
 10
7.817613657019371
 20
27.23644183390428
 30
0.0
 10
7.883277677262438
 20
27.1044836586573
 30
0.0
 10
7.915468612080134
 20
27.03815132334747
 30
0.0
 10
7.947316698150848
 20
26.97163007026133
 30
0.0
  0
SPLINE
  5
77
330
1F
100
AcDbEntity
  8
0
  6
Continuous
 62
     5
370
     0
100
AcDbSpline
210
0.0
220
0.0
230
1.0
 70
     8
 71
     3
 72
    50
 73
    46
 74
     0
 42
0.000000001
 43
0.00000001
 40
0.0
 40
0.0
 40
0.0
 40
0.0
 40
0.0312499999999995
 40
0.0312499999999995
 40
0.0624999999999989
 40
0.0624999999999989
 40
0.124999999999998
 40
0.124999999999998
 40
0.249999999999997
 40
0.249999999999997
 40
0.374999999999996
 40
0.374999999999996
 40
0.499999999999995
 40
0.499999999999995
 40
0.5312499999999947
 40
0.5312499999999947
 40
0.5624999999999943
 40
0.5624999999999943
 40
0.6249999999999947
 40
0.6249999999999947
 40
0.6562499999999948
 40
0.6562499999999948
 40
0.6874999999999949
 40
0.6874999999999949
 40
0.718749999999995
 40
0.718749999999995
 40
0.7499999999999951
 40
0.7499999999999951
 40
0.8124999999999962
 40
0.8124999999999962
 40
0.8437499999999967
 40
0.8437499999999967
 40
0.8749999999999971
 40
0.8749999999999971
 40
0.9062499999999976
 40
0.9062499999999976
 40
0.937499999999998
 40
0.937499999999998
 40
0.9531249999999984
 40
0.9531249999999984
 40
0.968749999999999
 40
0.968749999999999
 40
0.9843749999999994
 40
0.9843749999999994
 40
1.0
 40
1.0
 40
1.0
 40
1.0
 10
7.947316698150848
 20
26.97163007026133
 30
0.0
 10
7.955121551654146
 20
26.95532402947179
 30
0.0
 10
7.962890134956774
 20
26.93900137259259
 30
0.0
 10
7.977596788544593
 20
26.90597558454676
 30
0.0
 10
7.984670765528625
 20
26.88933471490201
 30
0.0
 10
8.006294138436525
 20
26.83959601439406
 30
0.0
 10
8.020886330597175
 20
26.80651778932554
 30
0.0
 10
8.065747056980262
 20
26.70777978443393
 30
0.0
 10
8.09737985149044
 20
26.64274499898172
 30
0.0
 10
8.15826815472844
 20
26.51158634687681
 30
0.0
 10
8.187523477010496
 20
26.44549994512325
 30
0.0
 10
8.238155508921752
 20
26.3110583594705
 30
0.0
 10
8.25970194840387
 20
26.24269491633257
 30
0.0
 10
8.277184898079524
 20
26.15437605735574
 30
0.0
 10
8.280196536120041
 20
26.13656528484628
 30
0.0
 10
8.285046073185365
 20
26.10058795098437
 30
0.0
 10
8.28688801025168
 20
26.08237189824242
 30
0.0
 10
8.290213734217785
 20
26.02739115680458
 30
0.0
 10
8.289489624427878
 20
25.99094470004346
 30
0.0
 10
8.282428732433132
 20
25.9366962577514
 30
0.0
 10
8.279054776931643
 20
25.91861146231535
 30
0.0
 10
8.270036144785667
 20
25.88292992691681
 30
0.0
 10
8.264451015443655
 20
25.86554259751658
 30
0.0
 10
8.251044299413927
 20
25.8317105701596
 30
0.0
 10
8.243222668777083
 20
25.81526589072672
 30
0.0
 10
8.22526736388766
 20
25.7833510217233
 30
0.0
 10
8.215080051499768
 20
25.76784021637432
 30
0.0
 10
8.182025146453274
 20
25.72404617559505
 30
0.0
 10
8.156412518141247
 20
25.69798689282321
 30
0.0
 10
8.113850542559335
 20
25.66279559787453
 30
0.0
 10
8.099187030991187
 20
25.65188743147938
 30
0.0
 10
8.069089093232016
 20
25.63140229240418
 30
0.0
 10
8.053659060778495
 20
25.62181773274162
 30
0.0
 10
8.021980367365336
 20
25.60406219812483
 30
0.0
 10
8.00573296572608
 20
25.59588904861154
 30
0.0
 10
7.972293327795676
 20
25.58117426352058
 30
0.0
 10
7.95498950385423
 20
25.57466056614854
 30
0.0
 10
7.928778404924624
 20
25.5661152059472
 30
0.0
 10
7.920005178818232
 20
25.56342630851339
 30
0.0
 10
7.902330911780868
 20
25.55861198019217
 30
0.0
 10
7.893425560990229
 20
25.55650554914889
 30
0.0
 10
7.875331857838353
 20
25.55354028817696
 30
0.0
 10
7.866115819631479
 20
25.55280351019245
 30
0.0
 10
7.84736543298069
 20
25.55273321218309
 30
0.0
 10
7.838017910749195
 20
25.55334760923857
 30
0.0
 10
7.828678820352828
 20
25.5541030630006
 30
0.0
  0
SPLINE
  5
78
330
1F
100
AcDbEntity
  8
0
  6
Continuous
 62
     5
370
     0
100
AcDbSpline
210
0.0
220
0.0
230
1.0
 70
     8
 71
     3
 72
    52
 73
    48
 74
     0
 42
0.000000001
 43
0.00000001
 40
0.0
 40
0.0
 40
0.0
 40
0.0
 40
0.0312500000000002
 40
0.0312500000000002
 40
0.0625000000000003
 40
0.0625000000000003
 40
0.1249999999999998
 40
0.1249999999999998
 40
0.2499999999999998
 40
0.2499999999999998
 40
0.3124999999999994
 40
0.3124999999999994
 40
0.3749999999999989
 40
0.3749999999999989
 40
0.4999999999999981
 40
0.4999999999999981
 40
0.531249999999998
 40
0.531249999999998
 40
0.562499999999998
 40
0.562499999999998
 40
0.624999999999998
 40
0.624999999999998
 40
0.656249999999998
 40
0.656249999999998
 40
0.6874999999999981
 40
0.6874999999999981
 40
0.7187499999999981
 40
0.7187499999999981
 40
0.7499999999999982
 40
0.7499999999999982
 40
0.8124999999999982
 40
0.8124999999999982
 40
0.8437499999999984
 40
0.8437499999999984
 40
0.8749999999999988
 40
0.8749999999999988
 40
0.906249999999999
 40
0.906249999999999
 40
0.9374999999999993
 40
0.9374999999999993
 40
0.9531249999999996
 40
0.9531249999999996
 40
0.9687499999999997
 40
0.9687499999999997
 40
0.9843749999999999
 40
0.9843749999999999
 40
0.9999999888523773
 40
0.9999999888523773
 40
0.9999999888523773
 40
0.9999999888523773
 10
11.61254188776102
 20
27.11076055288962
 30
0.0
 10
11.62079551332032
 20
27.09277272215954
 30
0.0
 10
11.6289650759834
 20
27.07475452904347
 30
0.0
 10
11.64354803536922
 20
27.03808383932762
 30
0.0
 10
11.65023255693131
 20
27.0195292693679
 30
0.0
 10
11.67052084798554
 20
26.9639503394915
 30
0.0
 10
11.68367021761891
 20
26.92676185646607
 30
0.0
 10
11.72373501772955
 20
26.81541914794876
 30
0.0
 10
11.75174567889595
 20
26.74166050503009
 30
0.0
 10
11.79132656977525
 20
26.63014301501626
 30
0.0
 10
11.80412109313093
 20
26.59282636629473
 30
0.0
 10
11.82829571709078
 20
26.51768219840473
 30
0.0
 10
11.83969200893247
 20
26.47980755514797
 30
0.0
 10
11.87068454693855
 20
26.36553730641787
 30
0.0
 10
11.88719584532945
 20
26.28850707207858
 30
0.0
 10
11.89847631879961
 20
26.19030247461025
 30
0.0
 10
11.90025226378771
 20
26.17055885745163
 30
0.0
 10
11.90266543742278
 20
26.13119920222962
 30
0.0
 10
11.90330848479277
 20
26.11154285392374
 30
0.0
 10
11.90328307022011
 20
26.05265524364837
 30
0.0
 10
11.90069023551822
 20
26.01350415873747
 30
0.0
 10
11.89136171508093
 20
25.95500415302711
 30
0.0
 10
11.88730477630285
 20
25.93543502125361
 30
0.0
 10
11.87721877020471
 20
25.89714910195181
 30
0.0
 10
11.87119426586006
 20
25.87839232009361
 30
0.0
 10
11.85701880281035
 20
25.84171542307802
 30
0.0
 10
11.8488677322103
 20
25.82379535194653
 30
0.0
 10
11.83027316539875
 20
25.78885717880609
 30
0.0
 10
11.81976459947296
 20
25.77177516912699
 30
0.0
 10
11.78560986404386
 20
25.72330557226252
 30
0.0
 10
11.75913289501565
 20
25.69423539001484
 30
0.0
 10
11.71466625865864
 20
25.65478628671173
 30
0.0
 10
11.69905282480317
 20
25.64234243161388
 30
0.0
 10
11.66705256765482
 20
25.61910687651544
 30
0.0
 10
11.65060570758973
 20
25.60821667462498
 30
0.0
 10
11.61665905440521
 20
25.58815114538676
 30
0.0
 10
11.59916133151074
 20
25.57897244633715
 30
0.0
 10
11.56280797317512
 20
25.56282663201081
 30
0.0
 10
11.54399043443792
 20
25.55600431826371
 30
0.0
 10
11.51538677792156
 20
25.54752662287654
 30
0.0
 10
11.50578689890845
 20
25.54491542948492
 30
0.0
 10
11.48632720752565
 20
25.54054734713275
 30
0.0
 10
11.47644216601945
 20
25.53882877969867
 30
0.0
 10
11.45680194929981
 20
25.5374835573616
 30
0.0
 10
11.44699375771208
 20
25.53804744508475
 30
0.0
 10
11.42739700047816
 20
25.54121163230241
 30
0.0
 10
11.41763905918373
 20
25.54373144664408
 30
0.0
 10
11.40797149417893
 20
25.54634421364199
 30
0.0
  0
SPLINE
  5
79
330
1F
100
AcDbEntity
  8
0
  6
Continuous
 62
     5
370
     0
100
AcDbSpline
210
0.0
220
0.0
230
1.0
 70
     8
 71
     3
 72
   188
 73
   184
 74
     0
 42
0.000000001
 43
0.00000001
 40
0.0
 40
0.0
 40
0.0
 40
0.0
 40
0.0156250000000008
 40
0.0156250000000008
 40
0.0234375000000013
 40
0.0234375000000013
 40
0.0273437500000015
 40
0.0273437500000015
 40
0.0312500000000017
 40
0.0312500000000017
 40
0.0468750000000023
 40
0.0468750000000023
 40
0.0625000000000031
 40
0.0625000000000031
 40
0.0703125000000035
 40
0.0703125000000035
 40
0.0781250000000039
 40
0.0781250000000039
 40
0.0859375000000043
 40
0.0859375000000043
 40
0.0937500000000047
 40
0.0937500000000047
 40
0.1015625000000051
 40
0.1015625000000051
 40
0.1093750000000055
 40
0.1093750000000055
 40
0.1250000000000063
 40
0.1250000000000063
 40
0.1406250000000071
 40
0.1406250000000071
 40
0.1562500000000079
 40
0.1562500000000079
 40
0.1718750000000087
 40
0.1718750000000087
 40
0.1875000000000095
 40
0.1875000000000095
 40
0.2031250000000104
 40
0.2031250000000104
 40
0.2187500000000112
 40
0.2187500000000112
 40
0.234375000000012
 40
0.234375000000012
 40
0.2500000000000128
 40
0.2500000000000128
 40
0.2578125000000132
 40
0.2578125000000132
 40
0.2617187500000133
 40
0.2617187500000133
 40
0.2656250000000135
 40
0.2656250000000135
 40
0.2812500000000143
 40
0.2812500000000143
 40
0.2968750000000152
 40
0.2968750000000152
 40
0.3125000000000159
 40
0.3125000000000159
 40
0.3281250000000168
 40
0.3281250000000168
 40
0.3437500000000176
 40
0.3437500000000176
 40
0.3750000000000192
 40
0.3750000000000192
 40
0.3906250000000201
 40
0.3906250000000201
 40
0.3984375000000205
 40
0.3984375000000205
 40
0.4062500000000209
 40
0.4062500000000209
 40
0.4140625000000213
 40
0.4140625000000213
 40
0.4218750000000218
 40
0.4218750000000218
 40
0.4375000000000226
 40
0.4375000000000226
 40
0.4687500000000243
 40
0.4687500000000243
 40
0.4843750000000251
 40
0.4843750000000251
 40
0.5000000000000259
 40
0.5000000000000259
 40
0.5156250000000268
 40
0.5156250000000268
 40
0.5234375000000271
 40
0.5234375000000271
 40
0.5312500000000275
 40
0.5312500000000275
 40
0.539062500000028
 40
0.539062500000028
 40
0.5429687500000282
 40
0.5429687500000282
 40
0.5468750000000284
 40
0.5468750000000284
 40
0.5488281250000285
 40
0.5488281250000285
 40
0.5507812500000285
 40
0.5507812500000285
 40
0.5527343750000286
 40
0.5527343750000286
 40
0.5546875000000288
 40
0.5546875000000288
 40
0.5566406250000289
 40
0.5566406250000289
 40
0.558593750000029
 40
0.558593750000029
 40
0.5605468750000291
 40
0.5605468750000291
 40
0.5625000000000292
 40
0.5625000000000292
 40
0.5644531250000293
 40
0.5644531250000293
 40
0.5654296875000293
 40
0.5654296875000293
 40
0.5664062500000292
 40
0.5664062500000292
 40
0.5683593750000291
 40
0.5683593750000291
 40
0.570312500000029
 40
0.570312500000029
 40
0.5742187500000288
 40
0.5742187500000288
 40
0.5781250000000285
 40
0.5781250000000285
 40
0.585937500000028
 40
0.585937500000028
 40
0.5937500000000275
 40
0.5937500000000275
 40
0.6015625000000271
 40
0.6015625000000271
 40
0.6093750000000266
 40
0.6093750000000266
 40
0.6250000000000255
 40
0.6250000000000255
 40
0.6406250000000245
 40
0.6406250000000245
 40
0.6562500000000234
 40
0.6562500000000234
 40
0.6718750000000224
 40
0.6718750000000224
 40
0.6796875000000219
 40
0.6796875000000219
 40
0.6875000000000212
 40
0.6875000000000212
 40
0.6953125000000207
 40
0.6953125000000207
 40
0.7031250000000201
 40
0.7031250000000201
 40
0.718750000000019
 40
0.718750000000019
 40
0.734375000000018
 40
0.734375000000018
 40
0.7500000000000169
 40
0.7500000000000169
 40
0.7656250000000159
 40
0.7656250000000159
 40
0.7812500000000149
 40
0.7812500000000149
 40
0.7968750000000138
 40
0.7968750000000138
 40
0.8046875000000132
 40
0.8046875000000132
 40
0.8125000000000127
 40
0.8125000000000127
 40
0.8281250000000115
 40
0.8281250000000115
 40
0.8437500000000105
 40
0.8437500000000105
 40
0.8593750000000094
 40
0.8593750000000094
 40
0.8750000000000084
 40
0.8750000000000084
 40
0.8906250000000073
 40
0.8906250000000073
 40
0.9062500000000063
 40
0.9062500000000063
 40
0.9375000000000042
 40
0.9375000000000042
 40
0.9531250000000031
 40
0.9531250000000031
 40
0.9687500000000021
 40
0.9687500000000021
 40
0.984375000000001
 40
0.984375000000001
 40
1.0
 40
1.0
 40
1.0
 40
1.0
 10
11.40797149417893
 20
25.54634421364199
 30
0.0
 10
11.33575275925183
 20
25.56586198613184
 30
0.0
 10
11.2654147868889
 20
25.58998131130295
 30
0.0
 10
11.1635589874493
 20
25.63509337827367
 30
0.0
 10
11.13022702990122
 20
25.65164759226861
 30
0.0
 10
11.08139255686883
 20
25.67932549141105
 30
0.0
 10
11.06530711003482
 20
25.68902295223525
 30
0.0
 10
11.03353009991322
 20
25.70938156591144
 30
0.0
 10
11.0178135438315
 20
25.7200651800431
 30
0.0
 10
10.94124370997972
 20
25.77500630139372
 30
0.0
 10
10.88555373161272
 20
25.82438179798341
 30
0.0
 10
10.7782788119655
 20
25.92713214746223
 30
0.0
 10
10.72670189878018
 20
25.98051482176959
 30
0.0
 10
10.65009501781344
 20
26.06132779537424
 30
0.0
 10
10.62465761443395
 20
26.08836114816624
 30
0.0
 10
10.57411216670291
 20
26.14274873370217
 30
0.0
 10
10.54902586460876
 20
26.17012414896706
 30
0.0
 10
10.49959299681656
 20
26.22559567199077
 30
0.0
 10
10.47524441429679
 20
26.25368981484927
 30
0.0
 10
10.42768128865576
 20
26.31098294505764
 30
0.0
 10
10.40451141790669
 20
26.34022545472639
 30
0.0
 10
10.3593197861939
 20
26.39982902671165
 30
0.0
 10
10.337293702883
 20
26.43017050696141
 30
0.0
 10
10.29439683162858
 20
26.49134694015737
 30
0.0
 10
10.27348167188371
 20
26.52223297493012
 30
0.0
 10
10.21186074012446
 20
26.61551910441817
 30
0.0
 10
10.17223010514571
 20
26.67851963009272
 30
0.0
 10
10.09495283273338
 20
26.8056286830358
 30
0.0
 10
10.05723923465807
 20
26.86969981484588
 30
0.0
 10
9.983702944497427
 20
26.99889809129025
 30
0.0
 10
9.947962713775118
 20
27.06407128805898
 30
0.0
 10
9.878870677557535
 20
27.19575154360907
 30
0.0
 10
9.845425758629325
 20
27.26220660140264
 30
0.0
 10
9.779519623132082
 20
27.39566608449509
 30
0.0
 10
9.746975984534192
 20
27.46262447962646
 30
0.0
 10
9.682624791904264
 20
27.59695235047459
 30
0.0
 10
9.650871663348918
 20
27.66436840842024
 30
0.0
 10
9.588180772153757
 20
27.79957714976465
 30
0.0
 10
9.557193654844696
 20
27.86732733088924
 30
0.0
 10
9.495338447245278
 20
28.00287612744852
 30
0.0
 10
9.464421935393382
 20
28.07065503924825
 30
0.0
 10
9.40364253102363
 20
28.20664160017229
 30
0.0
 10
9.373699817873263
 20
28.27481676879502
 30
0.0
 10
9.330685343803738
 20
28.37785250257052
 30
0.0
 10
9.316682053854088
 20
28.41233401121644
 30
0.0
 10
9.296434383358681
 20
28.46436441918118
 30
0.0
 10
9.2898110326755
 20
28.48175910849495
 30
0.0
 10
9.276862873706769
 20
28.5166699695827
 30
0.0
 10
9.270523792868845
 20
28.53418033358939
 30
0.0
 10
9.238595522732803
 20
28.62163739613343
 30
0.0
 10
9.212750941456175
 20
28.69148017091953
 30
0.0
 10
9.161766398101742
 20
28.83145244316319
 30
0.0
 10
9.136653347628235
 20
28.90159289145361
 30
0.0
 10
9.087588336287421
 20
29.04234625701377
 30
0.0
 10
9.063614235703126
 20
29.11295644267107
 30
0.0
 10
9.016810919906135
 20
29.25446567518529
 30
0.0
 10
8.993946796352523
 20
29.32537555518708
 30
0.0
 10
8.948995151890228
 20
29.46741963245693
 30
0.0
 10
8.92688325344164
 20
29.53854678841096
 30
0.0
 10
8.862139082256606
 20
29.75238795899395
 30
0.0
 10
8.82121705617132
 20
29.8955959686614
 30
0.0
 10
8.764664030273337
 20
30.11180310507067
 30
0.0
 10
8.746533103104824
 20
30.18408014198443
 30
0.0
 10
8.719366014094394
 20
30.29250416099705
 30
0.0
 10
8.71029280249506
 20
30.32864044148375
 30
0.0
 10
8.692097005251723
 20
30.40089874104457
 30
0.0
 10
8.68298775991888
 20
30.43702590491391
 30
0.0
 10
8.665077431108827
 20
30.50936389119288
 30
0.0
 10
8.656275211772153
 20
30.54556136327997
 30
0.0
 10
8.639285382342278
 20
30.61807075000947
 30
0.0
 10
8.631139495867227
 20
30.65439043374667
 30
0.0
 10
8.607687159307092
 20
30.76353295578575
 30
0.0
 10
8.593211537431433
 20
30.83651049742852
 30
0.0
 10
8.549335255485452
 20
31.05535943934606
 30
0.0
 10
8.518621601047066
 20
31.20098635512571
 30
0.0
 10
8.47767194751377
 20
31.42038024627325
 30
0.0
 10
8.46485205098796
 20
31.49366609021043
 30
0.0
 10
8.441718856185307
 20
31.64070451611676
 30
0.0
 10
8.431374218628465
 20
31.71445126259399
 30
0.0
 10
8.412111724031645
 20
31.8622104274529
 30
0.0
 10
8.403238908980079
 20
31.93623236550347
 30
0.0
 10
8.389952498686913
 20
32.04725444545089
 30
0.0
 10
8.385525669827267
 20
32.08426205154512
 30
0.0
 10
8.376397547204006
 20
32.1582430542645
 30
0.0
 10
8.371587758625896
 20
32.19520292803136
 30
0.0
 10
8.361738903167101
 20
32.26909409818091
 30
0.0
 10
8.356647216964513
 20
32.30604678384259
 30
0.0
 10
8.351156072627887
 20
32.36156796249544
 30
0.0
 10
8.34970070818523
 20
32.38009139024789
 30
0.0
 10
8.348555458978664
 20
32.41721530286463
 30
0.0
 10
8.348835382349263
 20
32.43581446995791
 30
0.0
 10
8.352116495103141
 20
32.46383810333954
 30
0.0
 10
8.353718975657229
 20
32.47321062052995
 30
0.0
 10
8.358188850644531
 20
32.49142329887824
 30
0.0
 10
8.361047690090771
 20
32.50032914198793
 30
0.0
 10
8.368218608639049
 20
32.51767381759696
 30
0.0
 10
8.372580125742548
 20
32.52617879547324
 30
0.0
 10
8.382452645145397
 20
32.5421792590782
 30
0.0
 10
8.387976486734257
 20
32.54972279529634
 30
0.0
 10
8.400184736540043
 20
32.56390782213568
 30
0.0
 10
8.406929668342153
 20
32.57060059866878
 30
0.0
 10
8.42138711515964
 20
32.58275597321845
 30
0.0
 10
8.42902126489737
 20
32.58817315963831
 30
0.0
 10
8.445139863538223
 20
32.59762226643688
 30
0.0
 10
8.453661828040826
 20
32.60167481297977
 30
0.0
 10
8.471580450384744
 20
32.60800823043211
 30
0.0
 10
8.480742283398191
 20
32.61021997541402
 30
0.0
 10
8.49957510943262
 20
32.61224259175521
 30
0.0
 10
8.509157572230745
 20
32.61201255842268
 30
0.0
 10
8.523086986050048
 20
32.60919463211958
 30
0.0
 10
8.527706822369664
 20
32.60782150770556
 30
0.0
 10
8.536456076403828
 20
32.60424356703915
 30
0.0
 10
8.540630124180865
 20
32.60203049024801
 30
0.0
 10
8.55251349487345
 20
32.59404063355313
 30
0.0
 10
8.55916633276808
 20
32.58711646026278
 30
0.0
 10
8.57062289574033
 20
32.57195072844843
 30
0.0
 10
8.575395661382517
 20
32.56385726427902
 30
0.0
 10
8.588521949770975
 20
32.53893989909058
 30
0.0
 10
8.59573445450621
 20
32.52150089482434
 30
0.0
 10
8.609950523143768
 20
32.48654235943533
 30
0.0
 10
8.616858406716212
 20
32.46896614276178
 30
0.0
 10
8.638217153199546
 20
32.41654512030305
 30
0.0
 10
8.65331796750959
 20
32.38201513784844
 30
0.0
 10
8.68657622089176
 20
32.3144357402388
 30
0.0
 10
8.704797764942347
 20
32.2814173762406
 30
0.0
 10
8.742543805538727
 20
32.21601177211692
 30
0.0
 10
8.762035682129108
 20
32.18361073704989
 30
0.0
 10
8.801172066961245
 20
32.11892406633871
 30
0.0
 10
8.820841639120689
 20
32.08663783435124
 30
0.0
 10
8.879031481621887
 20
31.98931789770506
 30
0.0
 10
8.916600543933676
 20
31.92374841360484
 30
0.0
 10
8.990983065589393
 20
31.79218384288279
 30
0.0
 10
9.027919828670104
 20
31.72625820858384
 30
0.0
 10
9.102187954933372
 20
31.59462920327172
 30
0.0
 10
9.139485857938547
 20
31.52890698540845
 30
0.0
 10
9.21447772793954
 20
31.39768563752077
 30
0.0
 10
9.252027619103803
 20
31.33210535503954
 30
0.0
 10
9.306280619480091
 20
31.23256794439338
 30
0.0
 10
9.323986111571827
 20
31.19917542052378
 30
0.0
 10
9.358834922284535
 20
31.13207372176953
 30
0.0
 10
9.376049045239732
 20
31.09840442828354
 30
0.0
 10
9.410774936872784
 20
31.03123349386919
 30
0.0
 10
9.428285279437965
 20
30.99773123674061
 30
0.0
 10
9.464336434113267
 20
30.93130542447197
 30
0.0
 10
9.482922766741877
 20
30.8984075081472
 30
0.0
 10
9.539725195779404
 20
30.80029987968759
 30
0.0
 10
9.578878197770042
 20
30.73561645007833
 30
0.0
 10
9.655903223256479
 20
30.60553003425706
 30
0.0
 10
9.693853650267716
 20
30.54017108919597
 30
0.0
 10
9.769465513551824
 20
30.40929086598643
 30
0.0
 10
9.807153125965907
 20
30.34378429160959
 30
0.0
 10
9.88267808889016
 20
30.21285525436611
 30
0.0
 10
9.920506975547488
 20
30.14742803714861
 30
0.0
 10
9.99644966529064
 20
30.01673364716259
 30
0.0
 10
10.03452911057752
 20
29.95144717478741
 30
0.0
 10
10.11060656398691
 20
29.82082848481216
 30
0.0
 10
10.14857964223297
 20
29.75548226349752
 30
0.0
 10
10.20580112253554
 20
29.65761002626881
 30
0.0
 10
10.22492187777218
 20
29.6250123080487
 30
0.0
 10
10.26332691563377
 20
29.55990872889763
 30
0.0
 10
10.28261910032792
 20
29.52740730675006
 30
0.0
 10
10.34036763754473
 20
29.42983113013766
 30
0.0
 10
10.37867864588701
 20
29.36467473233136
 30
0.0
 10
10.45282973290895
 20
29.23297395576451
 30
0.0
 10
10.48885270435353
 20
29.16653231229352
 30
0.0
 10
10.56140375472237
 20
29.03393275643958
 30
0.0
 10
10.59815924433082
 20
28.96790258613817
 30
0.0
 10
10.67269381629973
 20
28.83641722234114
 30
0.0
 10
10.71037963614289
 20
28.77090964103386
 30
0.0
 10
10.7860633214674
 20
28.64006976200152
 30
0.0
 10
10.82406365656016
 20
28.57473885151692
 30
0.0
 10
10.89987704602203
 20
28.4439718304356
 30
0.0
 10
10.93768022232446
 20
28.37853017108992
 30
0.0
 10
11.05068192464613
 20
28.18197610699589
 30
0.0
 10
11.12575148230769
 20
28.05079125760177
 30
0.0
 10
11.23472984295203
 20
27.85197718517765
 30
0.0
 10
11.27052850114923
 20
27.78540953953029
 30
0.0
 10
11.34183957956071
 20
27.65211346143751
 30
0.0
 10
11.37749463886656
 20
27.58546515281975
 30
0.0
 10
11.44765863075578
 20
27.45152472848359
 30
0.0
 10
11.48202623446805
 20
27.38415322492006
 30
0.0
 10
11.54858266512672
 20
27.24818634618697
 30
0.0
 10
11.58091444465479
 20
27.17967127094003
 30
0.0
 10
11.61254188776102
 20
27.11076055288962
 30
0.0
  0
SPLINE
  5
7A
330
1F
100
AcDbEntity
  8
0
  6
Continuous
 62
     5
370
     0
100
AcDbSpline
210
0.0
220
0.0
230
1.0
 70
     8
 71
     3
 72
    50
 73
    46
 74
     0
 42
0.000000001
 43
0.00000001
 40
0.0
 40
0.0
 40
0.0
 40
0.0
 40
0.0156250000000005
 40
0.0156250000000005
 40
0.031250000000001
 40
0.031250000000001
 40
0.0468750000000015
 40
0.0468750000000015
 40
0.062500000000002
 40
0.062500000000002
 40
0.1250000000000026
 40
0.1250000000000026
 40
0.2500000000000028
 40
0.2500000000000028
 40
0.3750000000000031
 40
0.3750000000000031
 40
0.5000000000000033
 40
0.5000000000000033
 40
0.5625000000000034
 40
0.5625000000000034
 40
0.6250000000000037
 40
0.6250000000000037
 40
0.6562500000000037
 40
0.6562500000000037
 40
0.6875000000000037
 40
0.6875000000000037
 40
0.7187500000000037
 40
0.7187500000000037
 40
0.7500000000000037
 40
0.7500000000000037
 40
0.8125000000000032
 40
0.8125000000000032
 40
0.8437500000000027
 40
0.8437500000000027
 40
0.8750000000000021
 40
0.8750000000000021
 40
0.9062500000000016
 40
0.9062500000000016
 40
0.9375000000000011
 40
0.9375000000000011
 40
0.9531250000000008
 40
0.9531250000000008
 40
0.9687500000000006
 40
0.9687500000000006
 40
0.999999982632847
 40
0.999999982632847
 40
0.999999982632847
 40
0.999999982632847
 10
14.95126387388088
 20
27.08933449594065
 30
0.0
 10
14.95526110004852
 20
27.08012050788307
 30
0.0
 10
14.95924133691506
 20
27.07090149680779
 30
0.0
 10
14.96678247202496
 20
27.05233949396061
 30
0.0
 10
14.97030100783205
 20
27.04298397740829
 30
0.0
 10
14.97675437728643
 20
27.02410036826067
 30
0.0
 10
14.97974178645918
 20
27.01458782002471
 30
0.0
 10
14.98559606771277
 20
26.99552708583272
 30
0.0
 10
14.98847809838313
 20
26.98598338163054
 30
0.0
 10
15.0026651431623
 20
26.93819889684971
 30
0.0
 10
15.01310694566715
 20
26.89970290110669
 30
0.0
 10
15.04508646245921
 20
26.78440830632793
 30
0.0
 10
15.06710550627333
 20
26.70775201607673
 30
0.0
 10
15.10675594596543
 20
26.5531421936418
 30
0.0
 10
15.12443881802803
 20
26.47540816463446
 30
0.0
 10
15.15092998250646
 20
26.31889580989642
 30
0.0
 10
15.15983753750578
 20
26.24006469514933
 30
0.0
 10
15.16203197098763
 20
26.12033802595008
 30
0.0
 10
15.16084927014305
 20
26.07995816626978
 30
0.0
 10
15.15330586094767
 20
26.00034794179344
 30
0.0
 10
15.14696651462194
 20
25.96099010850844
 30
0.0
 10
15.13206882368406
 20
25.90289205625697
 30
0.0
 10
15.12617686660327
 20
25.88362499425887
 30
0.0
 10
15.11231699326115
 20
25.84572501876118
 30
0.0
 10
15.10442801977628
 20
25.82729810176999
 30
0.0
 10
15.08657000754987
 20
25.79157876157708
 30
0.0
 10
15.07660088417222
 20
25.77428638453695
 30
0.0
 10
15.05441572297217
 20
25.74092712589549
 30
0.0
 10
15.0420933298829
 20
25.72474971584953
 30
0.0
 10
15.00247527194482
 20
25.67923957954938
 30
0.0
 10
14.97256953773999
 20
25.6528208989096
 30
0.0
 10
14.92323057902574
 20
25.61822174178639
 30
0.0
 10
14.90600224217355
 20
25.60750969078555
 30
0.0
 10
14.87093714644756
 20
25.58799460431652
 30
0.0
 10
14.85300056144674
 20
25.57915136180484
 30
0.0
 10
14.81618389270945
 20
25.56359993194076
 30
0.0
 10
14.79730664584798
 20
25.55688532498849
 30
0.0
 10
14.75835965761515
 20
25.54615462191402
 30
0.0
 10
14.7384176170038
 20
25.54221440081034
 30
0.0
 10
14.70842922744874
 20
25.53802048911624
 30
0.0
 10
14.69839864714502
 20
25.53686668521649
 30
0.0
 10
14.67816481138479
 20
25.53578290798097
 30
0.0
 10
14.66791998488426
 20
25.53587111185263
 30
0.0
 10
14.63824323936774
 20
25.53946510506279
 30
0.0
 10
14.61963409292835
 20
25.54675458616813
 30
0.0
 10
14.60109869736161
 20
25.55435112360565
 30
0.0
  0
SPLINE
  5
7B
330
1F
100
AcDbEntity
  8
0
  6
Continuous
 62
     5
370
     0
100
AcDbSpline
210
0.0
220
0.0
230
1.0
 70
     8
 71
     3
 72
   240
 73
   236
 74
     0
 42
0.000000001
 43
0.00000001
 40
0.0
 40
0.0
 40
0.0
 40
0.0
 40
0.0078124999999998
 40
0.0078124999999998
 40
0.0117187499999997
 40
0.0117187499999997
 40
0.0156249999999996
 40
0.0156249999999996
 40
0.0234374999999995
 40
0.0234374999999995
 40
0.0312499999999994
 40
0.0312499999999994
 40
0.0351562499999993
 40
0.0351562499999993
 40
0.0390624999999993
 40
0.0390624999999993
 40
0.0429687499999993
 40
0.0429687499999993
 40
0.0468749999999992
 40
0.0468749999999992
 40
0.0507812499999992
 40
0.0507812499999992
 40
0.0546874999999991
 40
0.0546874999999991
 40
0.0624999999999992
 40
0.0624999999999992
 40
0.0781249999999993
 40
0.0781249999999993
 40
0.0937499999999995
 40
0.0937499999999995
 40
0.1093749999999997
 40
0.1093749999999997
 40
0.1249999999999999
 40
0.1249999999999999
 40
0.140625
 40
0.140625
 40
0.1562500000000002
 40
0.1562500000000002
 40
0.1718750000000004
 40
0.1718750000000004
 40
0.1875000000000006
 40
0.1875000000000006
 40
0.2031250000000007
 40
0.2031250000000007
 40
0.2109375000000007
 40
0.2109375000000007
 40
0.2187500000000007
 40
0.2187500000000007
 40
0.2343750000000009
 40
0.2343750000000009
 40
0.2500000000000009
 40
0.2500000000000009
 40
0.257812500000001
 40
0.257812500000001
 40
0.2656250000000011
 40
0.2656250000000011
 40
0.2734375000000011
 40
0.2734375000000011
 40
0.2812500000000011
 40
0.2812500000000011
 40
0.2968750000000012
 40
0.2968750000000012
 40
0.3046875000000013
 40
0.3046875000000013
 40
0.3125000000000013
 40
0.3125000000000013
 40
0.3203125000000014
 40
0.3203125000000014
 40
0.3281250000000014
 40
0.3281250000000014
 40
0.3437500000000015
 40
0.3437500000000015
 40
0.3593750000000016
 40
0.3593750000000016
 40
0.3750000000000017
 40
0.3750000000000017
 40
0.3906250000000018
 40
0.3906250000000018
 40
0.4062500000000019
 40
0.4062500000000019
 40
0.421875000000002
 40
0.421875000000002
 40
0.4375000000000021
 40
0.4375000000000021
 40
0.4531250000000022
 40
0.4531250000000022
 40
0.4687500000000023
 40
0.4687500000000023
 40
0.4765625000000023
 40
0.4765625000000023
 40
0.4843750000000023
 40
0.4843750000000023
 40
0.4921875000000024
 40
0.4921875000000024
 40
0.5000000000000024
 40
0.5000000000000024
 40
0.5156250000000026
 40
0.5156250000000026
 40
0.5234375000000026
 40
0.5234375000000026
 40
0.5312500000000027
 40
0.5312500000000027
 40
0.5332031250000026
 40
0.5332031250000026
 40
0.5351562500000026
 40
0.5351562500000026
 40
0.5371093750000026
 40
0.5371093750000026
 40
0.5390625000000024
 40
0.5390625000000024
 40
0.5410156250000024
 40
0.5410156250000024
 40
0.5429687500000023
 40
0.5429687500000023
 40
0.5449218750000023
 40
0.5449218750000023
 40
0.5468750000000023
 40
0.5468750000000023
 40
0.5488281250000022
 40
0.5488281250000022
 40
0.5507812500000022
 40
0.5507812500000022
 40
0.5527343750000021
 40
0.5527343750000021
 40
0.5537109375000021
 40
0.5537109375000021
 40
0.5546875000000021
 40
0.5546875000000021
 40
0.5556640625000021
 40
0.5556640625000021
 40
0.5566406250000021
 40
0.5566406250000021
 40
0.5585937500000021
 40
0.5585937500000021
 40
0.5625000000000022
 40
0.5625000000000022
 40
0.5664062500000024
 40
0.5664062500000024
 40
0.5703125000000026
 40
0.5703125000000026
 40
0.5742187500000026
 40
0.5742187500000026
 40
0.5781250000000026
 40
0.5781250000000026
 40
0.5859375000000027
 40
0.5859375000000027
 40
0.5937500000000027
 40
0.5937500000000027
 40
0.6015625000000027
 40
0.6015625000000027
 40
0.6093750000000028
 40
0.6093750000000028
 40
0.6171875000000028
 40
0.6171875000000028
 40
0.6250000000000029
 40
0.6250000000000029
 40
0.6406250000000029
 40
0.6406250000000029
 40
0.6484375000000028
 40
0.6484375000000028
 40
0.6523437500000028
 40
0.6523437500000028
 40
0.6562500000000028
 40
0.6562500000000028
 40
0.6640625000000028
 40
0.6640625000000028
 40
0.6679687500000027
 40
0.6679687500000027
 40
0.6718750000000026
 40
0.6718750000000026
 40
0.6796875000000026
 40
0.6796875000000026
 40
0.6875000000000024
 40
0.6875000000000024
 40
0.6953125000000024
 40
0.6953125000000024
 40
0.7031250000000023
 40
0.7031250000000023
 40
0.7187500000000023
 40
0.7187500000000023
 40
0.7265625000000023
 40
0.7265625000000023
 40
0.7343750000000024
 40
0.7343750000000024
 40
0.7421875000000024
 40
0.7421875000000024
 40
0.7460937500000024
 40
0.7460937500000024
 40
0.7500000000000024
 40
0.7500000000000024
 40
0.7578125000000024
 40
0.7578125000000024
 40
0.7656250000000023
 40
0.7656250000000023
 40
0.7734375000000023
 40
0.7734375000000023
 40
0.7812500000000022
 40
0.7812500000000022
 40
0.7968750000000021
 40
0.7968750000000021
 40
0.812500000000002
 40
0.812500000000002
 40
0.8281250000000019
 40
0.8281250000000019
 40
0.8437500000000018
 40
0.8437500000000018
 40
0.8515625000000017
 40
0.8515625000000017
 40
0.8593750000000016
 40
0.8593750000000016
 40
0.8750000000000014
 40
0.8750000000000014
 40
0.8828125000000014
 40
0.8828125000000014
 40
0.8906250000000013
 40
0.8906250000000013
 40
0.9062500000000011
 40
0.9062500000000011
 40
0.914062500000001
 40
0.914062500000001
 40
0.921875000000001
 40
0.921875000000001
 40
0.9296875000000009
 40
0.9296875000000009
 40
0.9375000000000009
 40
0.9375000000000009
 40
0.9453125000000008
 40
0.9453125000000008
 40
0.9531250000000007
 40
0.9531250000000007
 40
0.9687500000000004
 40
0.9687500000000004
 40
0.9843750000000002
 40
0.9843750000000002
 40
1.0
 40
1.0
 40
1.0
 40
1.0
 10
14.60109869736161
 20
25.55435112360565
 30
0.0
 10
14.56542994426742
 20
25.56896953526015
 30
0.0
 10
14.53010889851207
 20
25.58417630200982
 30
0.0
 10
14.47728532647551
 20
25.60725379795123
 30
0.0
 10
14.45969674391663
 20
25.61497891143753
 30
0.0
 10
14.42451805450582
 20
25.630426559156
 30
0.0
 10
14.40693435851715
 20
25.6381599412008
 30
0.0
 10
14.35458544608726
 20
25.66204060798982
 30
0.0
 10
14.32023693346484
 20
25.67889299667514
 30
0.0
 10
14.25483245794123
 20
25.71816909276177
 30
0.0
 10
14.22360828469755
 20
25.74030817168099
 30
0.0
 10
14.17759195292989
 20
25.77490418923196
 30
0.0
 10
14.16236541755561
 20
25.78662611941105
 30
0.0
 10
14.13203787844368
 20
25.81028239167361
 30
0.0
 10
14.11696105280247
 20
25.8222576454798
 30
0.0
 10
14.08708234861627
 20
25.84667339068396
 30
0.0
 10
14.07228022853943
 20
25.85911347338622
 30
0.0
 10
14.04305023247765
 20
25.88462689668816
 30
0.0
 10
14.02863984361165
 20
25.89772982721698
 30
0.0
 10
14.00015898205833
 20
25.92451085995875
 30
0.0
 10
13.98607864625213
 20
25.93817578210239
 30
0.0
 10
13.95826696310968
 20
25.96567528459311
 30
0.0
 10
13.944507786849
 20
25.97953600451104
 30
0.0
 10
13.90339197229737
 20
26.02124051912451
 30
0.0
 10
13.87615165635809
 20
26.04917232465851
 30
0.0
 10
13.79502667956328
 20
26.13341865983892
 30
0.0
 10
13.74161619060928
 20
26.19009195343772
 30
0.0
 10
13.6382454565365
 20
26.30604903508064
 30
0.0
 10
13.58840345023336
 20
26.36542228398209
 30
0.0
 10
13.49315862031258
 20
26.48752751881802
 30
0.0
 10
13.44767071291607
 20
26.55019512938
 30
0.0
 10
13.35942986471921
 20
26.67759965790612
 30
0.0
 10
13.31650371320134
 20
26.7422055226353
 30
0.0
 10
13.23345026692028
 20
26.87353489952973
 30
0.0
 10
13.19322201779829
 20
26.94018202845788
 30
0.0
 10
13.11472747086966
 20
27.07496072140205
 30
0.0
 10
13.07651275176047
 20
27.14324730550321
 30
0.0
 10
13.00244771816502
 20
27.28092809154583
 30
0.0
 10
12.96653466523306
 20
27.35028450630119
 30
0.0
 10
12.89581280718507
 20
27.48950634364166
 30
0.0
 10
12.86081619237961
 20
27.55928519453423
 30
0.0
 10
12.79150422660683
 20
27.69915692784628
 30
0.0
 10
12.75726441229933
 20
27.76928462921739
 30
0.0
 10
12.70809847245704
 20
27.87548741444536
 30
0.0
 10
12.69207893233535
 20
27.91105848409648
 30
0.0
 10
12.66020912309909
 20
27.98227864960509
 30
0.0
 10
12.64430626441187
 20
28.01790350407052
 30
0.0
 10
12.59630044262581
 20
28.12464105075832
 30
0.0
 10
12.56405686586327
 20
28.19568892650132
 30
0.0
 10
12.50237169197868
 20
28.33907626267985
 30
0.0
 10
12.47242280263093
 20
28.41118188455928
 30
0.0
 10
12.42852750090974
 20
28.51981419333508
 30
0.0
 10
12.41407954960905
 20
28.55610969368327
 30
0.0
 10
12.38631383946347
 20
28.62922166150392
 30
0.0
 10
12.37305209286009
 20
28.66606942929492
 30
0.0
 10
12.34666592574341
 20
28.73980191195097
 30
0.0
 10
12.33359514686116
 20
28.77670936621726
 30
0.0
 10
12.3073219077799
 20
28.85047990217021
 30
0.0
 10
12.29410279259349
 20
28.88733737163509
 30
0.0
 10
12.25458727846654
 20
28.99795757288811
 30
0.0
 10
12.22828512257323
 20
29.07171836475909
 30
0.0
 10
12.19178248861042
 20
29.18335381455494
 30
0.0
 10
12.18005580332476
 20
29.22071418728829
 30
0.0
 10
12.15658023033103
 20
29.29542745121712
 30
0.0
 10
12.14472546822991
 20
29.33274466597763
 30
0.0
 10
12.12095470812334
 20
29.40735846087025
 30
0.0
 10
12.10914403693599
 20
29.4446905329213
 30
0.0
 10
12.08629686560379
 20
29.51961554900635
 30
0.0
 10
12.0752061157439
 20
29.55716241725093
 30
0.0
 10
12.04246814286476
 20
29.6699377694048
 30
0.0
 10
12.02116654795321
 20
29.74525373944791
 30
0.0
 10
11.98000935005531
 20
29.8962512413079
 30
0.0
 10
11.96020378088773
 20
29.97194542219371
 30
0.0
 10
11.92215933884555
 20
30.12372986105666
 30
0.0
 10
11.90394569499117
 20
30.19982649719207
 30
0.0
 10
11.86863556044112
 20
30.35230219738187
 30
0.0
 10
11.85147822094425
 20
30.42866587822746
 30
0.0
 10
11.81740380841055
 20
30.58145398177464
 30
0.0
 10
11.80048862386865
 20
30.65790609553092
 30
0.0
 10
11.76872312476108
 20
30.81116723407679
 30
0.0
 10
11.75433553539137
 20
30.88805267406297
 30
0.0
 10
11.72640683655741
 20
31.0419678482317
 30
0.0
 10
11.71269741377428
 20
31.11896889108334
 30
0.0
 10
11.68594200381923
 20
31.27308406855378
 30
0.0
 10
11.67287970999381
 20
31.35019542347817
 30
0.0
 10
11.64769670227557
 20
31.50457863863705
 30
0.0
 10
11.63562791379809
 20
31.58185935027608
 30
0.0
 10
11.61876496425121
 20
31.69799183261566
 30
0.0
 10
11.6133716561185
 20
31.73674147042036
 30
0.0
 10
11.60320803301412
 20
31.81434694382246
 30
0.0
 10
11.59846218436138
 20
31.85320966642186
 30
0.0
 10
11.58939100079029
 20
31.93097166712049
 30
0.0
 10
11.58502824910023
 20
31.96987163048705
 30
0.0
 10
11.57635670189739
 20
32.04767747698036
 30
0.0
 10
11.57207011142544
 20
32.08658579631599
 30
0.0
 10
11.55956693700979
 20
32.20334987808661
 30
0.0
 10
11.55194762695007
 20
32.2812711699633
 30
0.0
 10
11.53901456752217
 20
32.39798808723269
 30
0.0
 10
11.53458629343576
 20
32.43688272142764
 30
0.0
 10
11.52690231593156
 20
32.51478899108166
 30
0.0
 10
11.52375710347958
 20
32.55381085952136
 30
0.0
 10
11.51847851640117
 20
32.60245531298006
 30
0.0
 10
11.51734658794549
 20
32.61217668582122
 30
0.0
 10
11.51483434495589
 20
32.63159492941802
 30
0.0
 10
11.5134466407318
 20
32.64129107121645
 30
0.0
 10
11.51068118684889
 20
32.66068433678304
 30
0.0
 10
11.50929526228015
 20
32.67038065413588
 30
0.0
 10
11.50697851028797
 20
32.68981818197426
 30
0.0
 10
11.50604086197075
 20
32.69955871961163
 30
0.0
 10
11.50543036681855
 20
32.71916456143656
 30
0.0
 10
11.50578679167629
 20
32.72915433194078
 30
0.0
 10
11.50869789508445
 20
32.74859280010283
 30
0.0
 10
11.51128529981906
 20
32.75802245284218
 30
0.0
 10
11.51866076995667
 20
32.77631872561988
 30
0.0
 10
11.52334012921932
 20
32.78510376578503
 30
0.0
 10
11.53382658282363
 20
32.80164570384357
 30
0.0
 10
11.53968076011052
 20
32.80949786189019
 30
0.0
 10
11.5523603048222
 20
32.82453642010919
 30
0.0
 10
11.55919819285476
 20
32.83172256012575
 30
0.0
 10
11.57347811568357
 20
32.84522518679199
 30
0.0
 10
11.58095609070343
 20
32.85157839310304
 30
0.0
 10
11.596580573982
 20
32.86349741796153
 30
0.0
 10
11.60475326687283
 20
32.86916806233148
 30
0.0
 10
11.61783288160195
 20
32.87607114681879
 30
0.0
 10
11.62237056445792
 20
32.87812387965113
 30
0.0
 10
11.63189550336029
 20
32.88087437112272
 30
0.0
 10
11.63700814679158
 20
32.88160192705797
 30
0.0
 10
11.64661469947181
 20
32.87907384059196
 30
0.0
 10
11.65060602837865
 20
32.87585869805591
 30
0.0
 10
11.65761296796372
 20
32.86903442487058
 30
0.0
 10
11.66081181131808
 20
32.8653097461168
 30
0.0
 10
11.67041516708246
 20
32.85415109043655
 30
0.0
 10
11.67680611044711
 20
32.84670264185518
 30
0.0
 10
11.69598292751273
 20
32.8243605950355
 30
0.0
 10
11.70845147399579
 20
32.80916583731273
 30
0.0
 10
11.73154514471958
 20
32.77742121452761
 30
0.0
 10
11.74233689184702
 20
32.76110894215019
 30
0.0
 10
11.76337528653652
 20
32.72816678876276
 30
0.0
 10
11.77358455963168
 20
32.7115151310828
 30
0.0
 10
11.79369399184805
 20
32.6780317068532
 30
0.0
 10
11.80353396291263
 20
32.66116487102892
 30
0.0
 10
11.82266934673603
 20
32.627113906119
 30
0.0
 10
11.83198471587869
 20
32.60994140485365
 30
0.0
 10
11.85953273464429
 20
32.55819195004582
 30
0.0
 10
11.87735873064902
 20
32.52337750207572
 30
0.0
 10
11.91337146915795
 20
32.45396135046609
 30
0.0
 10
11.93157910966765
 20
32.41937364706082
 30
0.0
 10
11.96929956995769
 20
32.35097881649525
 30
0.0
 10
11.98888438549433
 20
32.31721474715727
 30
0.0
 10
12.02924839497465
 20
32.25040091909977
 30
0.0
 10
12.05004174811499
 20
32.21735962843735
 30
0.0
 10
12.09208509894771
 20
32.15155014820885
 30
0.0
 10
12.1134023759419
 20
32.11882219573965
 30
0.0
 10
12.15583613788517
 20
32.05324620499839
 30
0.0
 10
12.17688433321946
 20
32.0203573254011
 30
0.0
 10
12.2391628849043
 20
31.92117274564033
 30
0.0
 10
12.27987703597733
 20
31.85456832345973
 30
0.0
 10
12.34028964425428
 20
31.75426779654024
 30
0.0
 10
12.36029028983747
 20
31.7207524187526
 30
0.0
 10
12.39034110805827
 20
31.67050916529793
 30
0.0
 10
12.40034170207908
 20
31.65375163861559
 30
0.0
 10
12.42031396873695
 20
31.62021928851199
 30
0.0
 10
12.43033630074906
 20
31.6034747624649
 30
0.0
 10
12.46013175032356
 20
31.55307878309471
 30
0.0
 10
12.47939641389131
 20
31.51912324349105
 30
0.0
 10
12.50840170482051
 20
31.46825470139927
 30
0.0
 10
12.51805897599898
 20
31.45129184686574
 30
0.0
 10
12.53784864594404
 20
31.41765029286988
 30
0.0
 10
12.54786676209156
 20
31.40090324548046
 30
0.0
 10
12.57763385261054
 20
31.35049030567766
 30
0.0
 10
12.59730077709988
 20
31.31677616193612
 30
0.0
 10
12.63600356679275
 20
31.24900148026244
 30
0.0
 10
12.65502177257912
 20
31.21492850411675
 30
0.0
 10
12.69336527369465
 20
31.14695364586462
 30
0.0
 10
12.7125714118995
 20
31.1129853757154
 30
0.0
 10
12.7511507782088
 20
31.04514192906509
 30
0.0
 10
12.77061276929328
 20
31.01131620659832
 30
0.0
 10
12.83017211735487
 20
30.91049278153537
 30
0.0
 10
12.87161571397704
 20
30.84424513241407
 30
0.0
 10
12.93351698461124
 20
30.74472650265255
 30
0.0
 10
12.95409100117975
 20
30.7115203419269
 30
0.0
 10
12.99466992526393
 20
30.64479094303383
 30
0.0
 10
13.01468152593143
 20
30.61127143393634
 30
0.0
 10
13.05420107440653
 20
30.54395180702575
 30
0.0
 10
13.07357125311897
 20
30.51007493156483
 30
0.0
 10
13.10328920145308
 20
30.45962882874225
 30
0.0
 10
13.11335561629237
 20
30.44290284538772
 30
0.0
 10
13.13342743441179
 20
30.40941688626718
 30
0.0
 10
13.14338432484113
 20
30.39262988170846
 30
0.0
 10
13.17289931610901
 20
30.34207070195093
 30
0.0
 10
13.19239127406826
 20
30.30826167544066
 30
0.0
 10
13.23189940523669
 20
30.24093568741111
 30
0.0
 10
13.25175797765198
 20
30.20733091907114
 30
0.0
 10
13.29164865271429
 20
30.14021806425153
 30
0.0
 10
13.31169773992974
 20
30.10671944067442
 30
0.0
 10
13.35210530951671
 20
30.03989457212516
 30
0.0
 10
13.37253002301377
 20
30.00660522763058
 30
0.0
 10
13.43313826054323
 20
29.90636618826228
 30
0.0
 10
13.47262808339537
 20
29.83902999980793
 30
0.0
 10
13.5517843417843
 20
29.70445602213916
 30
0.0
 10
13.59173290899126
 20
29.63737542175836
 30
0.0
 10
13.67133227008294
 20
29.50304831746251
 30
0.0
 10
13.71120954385163
 20
29.43592799615141
 30
0.0
 10
13.78900413931357
 20
29.3005953719714
 30
0.0
 10
13.82663366619156
 20
29.23222272506419
 30
0.0
 10
13.88324582189218
 20
29.12975728041014
 30
0.0
 10
13.90208446385027
 20
29.09558426080349
 30
0.0
 10
13.93991467707722
 20
29.02732342570775
 30
0.0
 10
13.95896748346035
 20
28.99326972718319
 30
0.0
 10
14.0162478574014
 20
28.89117657836448
 30
0.0
 10
14.05456679777613
 20
28.82318803616755
 30
0.0
 10
14.11192549188302
 20
28.72113852319982
 30
0.0
 10
14.13106441032059
 20
28.68713280175416
 30
0.0
 10
14.16915768650532
 20
28.61901853141478
 30
0.0
 10
14.18804195989721
 20
28.58487093522782
 30
0.0
 10
14.24436219847035
 20
28.48224284980126
 30
0.0
 10
14.28163862744108
 20
28.4136734754293
 30
0.0
 10
14.33767793528298
 20
28.31088887026873
 30
0.0
 10
14.35638268882554
 20
28.27664125512356
 30
0.0
 10
14.39344457695506
 20
28.20795234995034
 30
0.0
 10
14.41195695459016
 20
28.17359755313182
 30
0.0
 10
14.44936480354449
 20
28.10510139901876
 30
0.0
 10
14.46818924919667
 20
28.07092046998186
 30
0.0
 10
14.50499153274221
 20
28.00208692687509
 30
0.0
 10
14.52302160335717
 20
27.96746341411307
 30
0.0
 10
14.55946252447937
 20
27.89842853899064
 30
0.0
 10
14.57773435489624
 20
27.86393972199408
 30
0.0
 10
14.61343205817366
 20
27.79449076522644
 30
0.0
 10
14.63079531055884
 20
27.75949573664091
 30
0.0
 10
14.68339196882872
 20
27.6547930693554
 30
0.0
 10
14.71840890177764
 20
27.58496482339332
 30
0.0
 10
14.78747697999777
 20
27.44477024569347
 30
0.0
 10
14.82157134706581
 20
27.37442799485321
 30
0.0
 10
14.8877089134025
 20
27.23260069104148
 30
0.0
 10
14.92004484414886
 20
27.16127873255535
 30
0.0
 10
14.95126387388088
 20
27.08933449594065
 30
0.0
  0
SPLINE
  5
7C
330
1F
100
AcDbEntity
  8
0
  6
Continuous
 62
     5
370
     0
100
AcDbSpline
210
0.0
220
0.0
230
1.0
 70
     8
 71
     3
 72
   254
 73
   250
 74
     0
 42
0.000000001
 43
0.00000001
 40
0.0
 40
0.0
 40
0.0
 40
0.0
 40
0.0078125000000012
 40
0.0078125000000012
 40
0.0117187500000018
 40
0.0117187500000018
 40
0.0156250000000024
 40
0.0156250000000024
 40
0.0234375000000037
 40
0.0234375000000037
 40
0.0312500000000049
 40
0.0312500000000049
 40
0.0351562500000055
 40
0.0351562500000055
 40
0.0390625000000062
 40
0.0390625000000062
 40
0.0429687500000068
 40
0.0429687500000068
 40
0.0468750000000074
 40
0.0468750000000074
 40
0.0546875000000087
 40
0.0546875000000087
 40
0.0625000000000099
 40
0.0625000000000099
 40
0.0781250000000124
 40
0.0781250000000124
 40
0.0937500000000149
 40
0.0937500000000149
 40
0.1093750000000174
 40
0.1093750000000174
 40
0.1250000000000198
 40
0.1250000000000198
 40
0.1406250000000223
 40
0.1406250000000223
 40
0.1562500000000248
 40
0.1562500000000248
 40
0.1718750000000273
 40
0.1718750000000273
 40
0.1796875000000285
 40
0.1796875000000285
 40
0.1875000000000297
 40
0.1875000000000297
 40
0.2031250000000319
 40
0.2031250000000319
 40
0.2109375000000331
 40
0.2109375000000331
 40
0.2187500000000342
 40
0.2187500000000342
 40
0.2265625000000354
 40
0.2265625000000354
 40
0.2343750000000365
 40
0.2343750000000365
 40
0.2421875000000376
 40
0.2421875000000376
 40
0.2500000000000387
 40
0.2500000000000387
 40
0.2578125000000399
 40
0.2578125000000399
 40
0.2656250000000411
 40
0.2656250000000411
 40
0.2734375000000422
 40
0.2734375000000422
 40
0.2812500000000434
 40
0.2812500000000434
 40
0.2890625000000446
 40
0.2890625000000446
 40
0.2968750000000457
 40
0.2968750000000457
 40
0.3046875000000469
 40
0.3046875000000469
 40
0.3125000000000481
 40
0.3125000000000481
 40
0.3281250000000503
 40
0.3281250000000503
 40
0.3437500000000526
 40
0.3437500000000526
 40
0.3593750000000549
 40
0.3593750000000549
 40
0.3750000000000571
 40
0.3750000000000571
 40
0.3906250000000594
 40
0.3906250000000594
 40
0.4062500000000617
 40
0.4062500000000617
 40
0.4218750000000639
 40
0.4218750000000639
 40
0.4375000000000662
 40
0.4375000000000662
 40
0.4531250000000685
 40
0.4531250000000685
 40
0.4609375000000697
 40
0.4609375000000697
 40
0.4687500000000708
 40
0.4687500000000708
 40
0.4843750000000732
 40
0.4843750000000732
 40
0.4921875000000743
 40
0.4921875000000743
 40
0.5000000000000755
 40
0.5000000000000755
 40
0.5078125000000766
 40
0.5078125000000766
 40
0.5156250000000777
 40
0.5156250000000777
 40
0.5234375000000788
 40
0.5234375000000788
 40
0.5273437500000794
 40
0.5273437500000794
 40
0.53125000000008
 40
0.53125000000008
 40
0.5351562500000806
 40
0.5351562500000806
 40
0.5371093750000809
 40
0.5371093750000809
 40
0.5390625000000813
 40
0.5390625000000813
 40
0.5429687500000819
 40
0.5429687500000819
 40
0.5468750000000827
 40
0.5468750000000827
 40
0.5488281250000832
 40
0.5488281250000832
 40
0.5507812500000835
 40
0.5507812500000835
 40
0.5517578125000837
 40
0.5517578125000837
 40
0.5522460937500837
 40
0.5522460937500837
 40
0.5527343750000838
 40
0.5527343750000838
 40
0.5529785156250838
 40
0.5529785156250838
 40
0.5532226562500839
 40
0.5532226562500839
 40
0.5537109375000839
 40
0.5537109375000839
 40
0.5546875000000837
 40
0.5546875000000837
 40
0.5566406250000834
 40
0.5566406250000834
 40
0.5585937500000829
 40
0.5585937500000829
 40
0.5625000000000822
 40
0.5625000000000822
 40
0.5664062500000813
 40
0.5664062500000813
 40
0.5703125000000805
 40
0.5703125000000805
 40
0.5781250000000788
 40
0.5781250000000788
 40
0.5937500000000756
 40
0.5937500000000756
 40
0.6093750000000724
 40
0.6093750000000724
 40
0.6171875000000708
 40
0.6171875000000708
 40
0.62109375000007
 40
0.62109375000007
 40
0.6250000000000694
 40
0.6250000000000694
 40
0.632812500000068
 40
0.632812500000068
 40
0.6406250000000665
 40
0.6406250000000665
 40
0.6484375000000651
 40
0.6484375000000651
 40
0.6562500000000636
 40
0.6562500000000636
 40
0.6601562500000628
 40
0.6601562500000628
 40
0.6640625000000622
 40
0.6640625000000622
 40
0.6718750000000606
 40
0.6718750000000606
 40
0.6738281250000602
 40
0.6738281250000602
 40
0.6757812500000598
 40
0.6757812500000598
 40
0.6796875000000592
 40
0.6796875000000592
 40
0.6875000000000577
 40
0.6875000000000577
 40
0.6953125000000563
 40
0.6953125000000563
 40
0.7031250000000548
 40
0.7031250000000548
 40
0.718750000000052
 40
0.718750000000052
 40
0.7343750000000491
 40
0.7343750000000491
 40
0.7421875000000476
 40
0.7421875000000476
 40
0.7460937500000469
 40
0.7460937500000469
 40
0.7500000000000461
 40
0.7500000000000461
 40
0.7539062500000454
 40
0.7539062500000454
 40
0.7578125000000446
 40
0.7578125000000446
 40
0.7656250000000432
 40
0.7656250000000432
 40
0.7812500000000403
 40
0.7812500000000403
 40
0.7851562500000396
 40
0.7851562500000396
 40
0.7890625000000389
 40
0.7890625000000389
 40
0.7968750000000374
 40
0.7968750000000374
 40
0.804687500000036
 40
0.804687500000036
 40
0.8125000000000345
 40
0.8125000000000345
 40
0.8203125000000331
 40
0.8203125000000331
 40
0.8281250000000316
 40
0.8281250000000316
 40
0.8359375000000302
 40
0.8359375000000302
 40
0.8437500000000288
 40
0.8437500000000288
 40
0.875000000000023
 40
0.875000000000023
 40
0.8828125000000215
 40
0.8828125000000215
 40
0.8906250000000201
 40
0.8906250000000201
 40
0.9062500000000172
 40
0.9062500000000172
 40
0.9140625000000158
 40
0.9140625000000158
 40
0.9218750000000143
 40
0.9218750000000143
 40
0.9296875000000129
 40
0.9296875000000129
 40
0.9375000000000114
 40
0.9375000000000114
 40
0.94531250000001
 40
0.94531250000001
 40
0.9531250000000085
 40
0.9531250000000085
 40
0.9609375000000071
 40
0.9609375000000071
 40
0.9687500000000057
 40
0.9687500000000057
 40
0.9843750000000029
 40
0.9843750000000029
 40
1.0
 40
1.0
 40
1.0
 40
1.0
 10
17.89489794138661
 20
25.25620277340035
 30
0.0
 10
17.85884272474614
 20
25.27391535176249
 30
0.0
 10
17.82299671349286
 20
25.29197572296295
 30
0.0
 10
17.76890752740771
 20
25.31853401547467
 30
0.0
 10
17.75081292854522
 20
25.32727893643972
 30
0.0
 10
17.71439576817204
 20
25.34438980258235
 30
0.0
 10
17.69606816896324
 20
25.35274737285374
 30
0.0
 10
17.64132560191519
 20
25.37821945423945
 30
0.0
 10
17.6051631568132
 20
25.39575377098334
 30
0.0
 10
17.53703541053884
 20
25.43779993319757
 30
0.0
 10
17.50480362927114
 20
25.46186876967099
 30
0.0
 10
17.4569360877397
 20
25.49877021560612
 30
0.0
 10
17.44103622674393
 20
25.51116377163544
 30
0.0
 10
17.40915092506878
 20
25.53580861201847
 30
0.0
 10
17.39320647097857
 20
25.54812803439903
 30
0.0
 10
17.3614918969053
 20
25.57305670034629
 30
0.0
 10
17.34572099758162
 20
25.58566464830183
 30
0.0
 10
17.31452867499425
 20
25.61146152959005
 30
0.0
 10
17.29909536376118
 20
25.62471314642595
 30
0.0
 10
17.25373929327142
 20
25.66526181763911
 30
0.0
 10
17.22463309237333
 20
25.69322820031298
 30
0.0
 10
17.1668313794317
 20
25.74950004252794
 30
0.0
 10
17.13800479115884
 20
25.77769728165697
 30
0.0
 10
17.05214636433881
 20
25.86280199407517
 30
0.0
 10
16.99604378765173
 20
25.92047669344603
 30
0.0
 10
16.88845072353685
 20
26.0396339695142
 30
0.0
 10
16.8368398473488
 20
26.10101714968982
 30
0.0
 10
16.73652624524435
 20
26.22618456493439
 30
0.0
 10
16.68798807478807
 20
26.29010466185881
 30
0.0
 10
16.59350247056709
 20
26.42008384455933
 30
0.0
 10
16.54735194480682
 20
26.48597525157589
 30
0.0
 10
16.4583610734245
 20
26.62049104825225
 30
0.0
 10
16.41535798724854
 20
26.68909491230484
 30
0.0
 10
16.33142661035716
 20
26.82744739091459
 30
0.0
 10
16.29067511484473
 20
26.89723646091652
 30
0.0
 10
16.21148615278332
 20
27.03798254379279
 30
0.0
 10
16.17307054202578
 20
27.10895058778036
 30
0.0
 10
16.1165238534368
 20
27.21594610256242
 30
0.0
 10
16.09783614512775
 20
27.25169262933684
 30
0.0
 10
16.06054272023186
 20
27.32322706596687
 30
0.0
 10
16.04195115127163
 20
27.35902211645007
 30
0.0
 10
15.98658798117179
 20
27.46661497984161
 30
0.0
 10
15.95014444970693
 20
27.53857837695189
 30
0.0
 10
15.89915490304037
 20
27.64837870723185
 30
0.0
 10
15.88269146672316
 20
27.68524787450086
 30
0.0
 10
15.84982935550141
 20
27.75901889559161
 30
0.0
 10
15.83331403897848
 20
27.79586187774489
 30
0.0
 10
15.8001810518847
 20
27.86949618164252
 30
0.0
 10
15.78360737117795
 20
27.9063097060691
 30
0.0
 10
15.75101154910433
 20
27.98021512932906
 30
0.0
 10
15.73516640295911
 20
28.01739636166321
 30
0.0
 10
15.70420678548735
 20
28.09212761447566
 30
0.0
 10
15.68901782124605
 20
28.12963914033308
 30
0.0
 10
15.65878607300016
 20
28.20469317577757
 30
0.0
 10
15.64372634566688
 20
28.24224096156632
 30
0.0
 10
15.61367751170862
 20
28.31736265495018
 30
0.0
 10
15.59878495760855
 20
28.35497227623931
 30
0.0
 10
15.57027221165126
 20
28.43066215131183
 30
0.0
 10
15.55670254168343
 20
28.46876109257443
 30
0.0
 10
15.52993016509729
 20
28.5450947107192
 30
0.0
 10
15.516672279745
 20
28.58330897760701
 30
0.0
 10
15.48992883781921
 20
28.65965329835709
 30
0.0
 10
15.47653695457714
 20
28.69781800093149
 30
0.0
 10
15.44998862289561
 20
28.77423449076849
 30
0.0
 10
15.43683853340373
 20
28.81250112247246
 30
0.0
 10
15.41170341281425
 20
28.88940459626509
 30
0.0
 10
15.39990663980857
 20
28.92807990412164
 30
0.0
 10
15.37702055573476
 20
29.00563572293872
 30
0.0
 10
15.3657811741639
 20
29.04447270515035
 30
0.0
 10
15.34230171641368
 20
29.12185641277113
 30
0.0
 10
15.33023795245762
 20
29.16045427847977
 30
0.0
 10
15.29503932940774
 20
29.27653580448552
 30
0.0
 10
15.27359993889432
 20
29.35451124447786
 30
0.0
 10
15.23167920355122
 20
29.51074001071756
 30
0.0
 10
15.2114370646989
 20
29.58909063511356
 30
0.0
 10
15.17300380138951
 20
29.74618189497968
 30
0.0
 10
15.15465863552289
 20
29.82489630564137
 30
0.0
 10
15.1191481998054
 20
29.98255364277385
 30
0.0
 10
15.10200601881172
 20
30.06150104096791
 30
0.0
 10
15.06936698654981
 20
30.21971449582116
 30
0.0
 10
15.0538904808989
 20
30.29898449290814
 30
0.0
 10
15.02380759552181
 20
30.45769300831327
 30
0.0
 10
15.00899702034053
 20
30.53709197917224
 30
0.0
 10
14.98147881354361
 20
30.69629720750145
 30
0.0
 10
14.96850492517201
 20
30.77605189781895
 30
0.0
 10
14.94361233474443
 20
30.9357656411701
 30
0.0
 10
14.93209473239819
 20
31.01580259714996
 30
0.0
 10
14.90996028940917
 20
31.17605008072031
 30
0.0
 10
14.89922852942281
 20
31.25621212156035
 30
0.0
 10
14.88360488134625
 20
31.37650929764889
 30
0.0
 10
14.87846143036677
 20
31.41661571240142
 30
0.0
 10
14.86832204444609
 20
31.49684538355477
 30
0.0
 10
14.8633276248194
 20
31.53696881295643
 30
0.0
 10
14.84909539716953
 20
31.65742484508677
 30
0.0
 10
14.84095455288255
 20
31.7378826862506
 30
0.0
 10
14.82871345035384
 20
31.8585660416611
 30
0.0
 10
14.82467323822362
 20
31.89879841126747
 30
0.0
 10
14.81705979914427
 20
31.97931646536345
 30
0.0
 10
14.81356755215879
 20
32.01961139519406
 30
0.0
 10
14.8066319696724
 20
32.10020683899423
 30
0.0
 10
14.80309769672416
 20
32.14049697079408
 30
0.0
 10
14.7956420730132
 20
32.22103304239527
 30
0.0
 10
14.79185708153945
 20
32.26129455009862
 30
0.0
 10
14.78515655178519
 20
32.34191682945912
 30
0.0
 10
14.7824421323586
 20
32.38230056250467
 30
0.0
 10
14.77661046058859
 20
32.44267522107764
 30
0.0
 10
14.77436024571347
 20
32.4627651347595
 30
0.0
 10
14.7683332560724
 20
32.50277067744495
 30
0.0
 10
14.76434725407429
 20
32.52266241934021
 30
0.0
 10
14.75573421154131
 20
32.56237271688009
 30
0.0
 10
14.75104559335
 20
32.58218424231109
 30
0.0
 10
14.74656946725144
 20
32.61219343598675
 30
0.0
 10
14.74553674026055
 20
32.62224893974207
 30
0.0
 10
14.7452490526965
 20
32.64256291174214
 30
0.0
 10
14.74603511766107
 20
32.65260846521416
 30
0.0
 10
14.75171704586151
 20
32.68194247085406
 30
0.0
 10
14.75968565925207
 20
32.70089193940337
 30
0.0
 10
14.77923128726632
 20
32.73580966599464
 30
0.0
 10
14.79089738480423
 20
32.7520721142459
 30
0.0
 10
14.81040838051778
 20
32.775194446721
 30
0.0
 10
14.81721373298609
 20
32.78261914829322
 30
0.0
 10
14.83138467960319
 20
32.79692501643035
 30
0.0
 10
14.83871956336513
 20
32.80388350687143
 30
0.0
 10
14.85051292941648
 20
32.81332444467291
 30
0.0
 10
14.8545997883394
 20
32.81633121898231
 30
0.0
 10
14.86115408061078
 20
32.82008381579818
 30
0.0
 10
14.86342082589846
 20
32.82121580347724
 30
0.0
 10
14.86820307337757
 20
32.82288154671338
 30
0.0
 10
14.87073274378236
 20
32.82343901000985
 30
0.0
 10
14.87450044996091
 20
32.82293765628877
 30
0.0
 10
14.87572322690689
 20
32.82251761659514
 30
0.0
 10
14.87788539314402
 20
32.82115849190786
 30
0.0
 10
14.87879475011684
 20
32.82027190022309
 30
0.0
 10
14.88123199950049
 20
32.81734038122105
 30
0.0
 10
14.8824512263859
 20
32.8151438363221
 30
0.0
 10
14.88599913022528
 20
32.80848865076808
 30
0.0
 10
14.88813918137308
 20
32.80391911810998
 30
0.0
 10
14.89498791496501
 20
32.79045878764556
 30
0.0
 10
14.90000939643742
 20
32.78174101764633
 30
0.0
 10
14.91082733541493
 20
32.76474050945797
 30
0.0
 10
14.9165128854324
 20
32.75640377989729
 30
0.0
 10
14.93350214212842
 20
32.73136643262009
 30
0.0
 10
14.94465999345284
 20
32.71456818906555
 30
0.0
 10
14.96614743463075
 20
32.68044676159775
 30
0.0
 10
14.97654482389928
 20
32.6631665479912
 30
0.0
 10
14.9974380645648
 20
32.62866852467607
 30
0.0
 10
15.00791888089508
 20
32.6114411867999
 30
0.0
 10
15.03965158408997
 20
32.55994312430986
 30
0.0
 10
15.06151363224296
 20
32.52605909454408
 30
0.0
 10
15.12663577549866
 20
32.42411294056124
 30
0.0
 10
15.16937424912265
 20
32.35572023432138
 30
0.0
 10
15.25481679184247
 20
32.21891301768037
 30
0.0
 10
15.29776248729654
 20
32.1506516400277
 30
0.0
 10
15.36315225024189
 20
32.0488750922859
 30
0.0
 10
15.38521139075105
 20
32.01511533833157
 30
0.0
 10
15.41862197482247
 20
31.96468173961026
 30
0.0
 10
15.42978607538954
 20
31.9478884459012
 30
0.0
 10
15.45226319707746
 20
31.91439975233996
 30
0.0
 10
15.46359289676999
 20
31.8977153162507
 30
0.0
 10
15.49750420684843
 20
31.84761087289847
 30
0.0
 10
15.52009370146479
 20
31.81419604838377
 30
0.0
 10
15.56494668047054
 20
31.7471520944948
 30
0.0
 10
15.58727663360741
 20
31.7135666587667
 30
0.0
 10
15.6317521610667
 20
31.64627458474467
 30
0.0
 10
15.65394984308546
 20
31.61260219977054
 30
0.0
 10
15.69787554950151
 20
31.54494869744978
 30
0.0
 10
15.71962332527854
 20
31.51098056379637
 30
0.0
 10
15.7522712734196
 20
31.46004564158009
 30
0.0
 10
15.76310426946379
 20
31.44303469424392
 30
0.0
 10
15.78473241848015
 20
31.40898792319186
 30
0.0
 10
15.79561624390797
 20
31.39201038886847
 30
0.0
 10
15.82753949755675
 20
31.340599084199
 30
0.0
 10
15.84775913952691
 20
31.30567419078751
 30
0.0
 10
15.87332712437039
 20
31.26219854736148
 30
0.0
 10
15.87845422146588
 20
31.25351165740744
 30
0.0
 10
15.88889144264074
 20
31.23624957349058
 30
0.0
 10
15.8942149770146
 20
31.22768256343712
 30
0.0
 10
15.91030741703027
 20
31.2020558867539
 30
0.0
 10
15.9210675644208
 20
31.18499087522063
 30
0.0
 10
15.95310957070892
 20
31.13365033020544
 30
0.0
 10
15.97432833943533
 20
31.09933629464528
 30
0.0
 10
16.01653178021983
 20
31.03056536120468
 30
0.0
 10
16.03759524652643
 20
30.99615654913982
 30
0.0
 10
16.08080903591396
 20
30.92800220177313
 30
0.0
 10
16.10243275029739
 20
30.89393529265235
 30
0.0
 10
16.16738106029517
 20
30.79178165795008
 30
0.0
 10
16.21089382250527
 20
30.72380976491497
 30
0.0
 10
16.29704105859129
 20
30.58732998527334
 30
0.0
 10
16.33979367073647
 20
30.51889419498266
 30
0.0
 10
16.40315913161971
 20
30.41577459396157
 30
0.0
 10
16.42417551545519
 20
30.38133704884725
 30
0.0
 10
16.45538026126475
 20
30.32948554835613
 30
0.0
 10
16.46573601635805
 20
30.31217374808298
 30
0.0
 10
16.48672147584203
 20
30.2777173307455
 30
0.0
 10
16.49740109398848
 20
30.26060317458008
 30
0.0
 10
16.51917182045238
 20
30.22662598261373
 30
0.0
 10
16.53016014648539
 20
30.20970022180336
 30
0.0
 10
16.55154545262922
 20
30.17548781913719
 30
0.0
 10
16.56199460364913
 20
30.15823301565446
 30
0.0
 10
16.59327502948678
 20
30.10642770046155
 30
0.0
 10
16.61419926567554
 20
30.07193392034523
 30
0.0
 10
16.67730835202897
 20
29.96865786147931
 30
0.0
 10
16.71959432392159
 20
29.89993729434973
 30
0.0
 10
16.77386530325052
 20
29.81489921179329
 30
0.0
 10
16.7847587949483
 20
29.79791557637382
 30
0.0
 10
16.8063705485931
 20
29.76384136796585
 30
0.0
 10
16.81706877411892
 20
29.74673856733751
 30
0.0
 10
16.84895668047507
 20
29.69530397966057
 30
0.0
 10
16.87001770044453
 20
29.66089367466781
 30
0.0
 10
16.91181875403528
 20
29.59187717614281
 30
0.0
 10
16.93261374264918
 20
29.55730452002862
 30
0.0
 10
16.97444170344307
 20
29.48830444217903
 30
0.0
 10
16.99545788397393
 20
29.45386677299418
 30
0.0
 10
17.03716167000082
 20
29.38479091493189
 30
0.0
 10
17.05786075361824
 20
29.3501597308152
 30
0.0
 10
17.09920036128315
 20
29.28086162539673
 30
0.0
 10
17.11984253491083
 20
29.24619571078472
 30
0.0
 10
17.16078535163396
 20
29.17665545550991
 30
0.0
 10
17.18106638176857
 20
29.14176914563292
 30
0.0
 10
17.22121804338305
 20
29.07174607163511
 30
0.0
 10
17.24114930819717
 20
29.03664631025693
 30
0.0
 10
17.34086834801442
 20
28.8611857769446
 30
0.0
 10
17.42026794904216
 20
28.72055069492896
 30
0.0
 10
17.51742651467161
 20
28.54374034753933
 30
0.0
 10
17.53680855919939
 20
28.50835351013064
 30
0.0
 10
17.57540751611167
 20
28.43749748989318
 30
0.0
 10
17.5945289130847
 20
28.40198067698871
 30
0.0
 10
17.6509751556062
 20
28.2949724906536
 30
0.0
 10
17.6879962959392
 20
28.22332967043143
 30
0.0
 10
17.74366498339992
 20
28.11593374554808
 30
0.0
 10
17.76225975435084
 20
28.0801543233189
 30
0.0
 10
17.79889338382401
 20
28.00831826546529
 30
0.0
 10
17.81690016053021
 20
27.97224563180172
 30
0.0
 10
17.8538011075919
 20
27.9005428755479
 30
0.0
 10
17.8725440901921
 20
27.86483736110036
 30
0.0
 10
17.9089913935028
 20
27.79290838913777
 30
0.0
 10
17.92647775738891
 20
27.75657624444818
 30
0.0
 10
17.96242341102759
 20
27.68439711796237
 30
0.0
 10
17.98067352319607
 20
27.64844582688065
 30
0.0
 10
18.0160117994667
 20
27.57596382329844
 30
0.0
 10
18.03285983702078
 20
27.53931336838473
 30
0.0
 10
18.06714462579315
 20
27.46630602874107
 30
0.0
 10
18.08437472226615
 20
27.42984609277359
 30
0.0
 10
18.11848941680534
 20
27.35675393329596
 30
0.0
 10
18.13545054828366
 20
27.32015987422666
 30
0.0
 10
18.1861596873816
 20
27.21029080219297
 30
0.0
 10
18.2197586827324
 20
27.13694148220725
 30
0.0
 10
18.28528646100235
 20
26.98940996778517
 30
0.0
 10
18.31758240681153
 20
26.91541086418464
 30
0.0
 10
18.34856653236801
 20
26.84075760333423
 30
0.0
  0
SPLINE
  5
7D
330
1F
100
AcDbEntity
  8
0
  6
Continuous
 62
     5
370
     0
100
AcDbSpline
210
0.0
220
0.0
230
1.0
 70
     8
 71
     3
 72
    52
 73
    48
 74
     0
 42
0.000000001
 43
0.00000001
 40
0.0
 40
0.0
 40
0.0
 40
0.0
 40
0.0156249999999996
 40
0.0156249999999996
 40
0.0312499999999992
 40
0.0312499999999992
 40
0.0468749999999988
 40
0.0468749999999988
 40
0.0624999999999985
 40
0.0624999999999985
 40
0.1249999999999985
 40
0.1249999999999985
 40
0.2499999999999994
 40
0.2499999999999994
 40
0.3750000000000003
 40
0.3750000000000003
 40
0.5000000000000012
 40
0.5000000000000012
 40
0.5625000000000012
 40
0.5625000000000012
 40
0.6250000000000012
 40
0.6250000000000012
 40
0.6562500000000009
 40
0.6562500000000009
 40
0.6875000000000006
 40
0.6875000000000006
 40
0.7187500000000002
 40
0.7187500000000002
 40
0.7343749999999998
 40
0.7343749999999998
 40
0.7499999999999992
 40
0.7499999999999992
 40
0.8124999999999991
 40
0.8124999999999991
 40
0.8437499999999993
 40
0.8437499999999993
 40
0.8749999999999996
 40
0.8749999999999996
 40
0.9062499999999998
 40
0.9062499999999998
 40
0.9375
 40
0.9375
 40
0.953125
 40
0.953125
 40
0.9687500000000001
 40
0.9687500000000001
 40
1.0
 40
1.0
 40
1.0
 40
1.0
 10
18.348566532368
 20
26.84075760333423
 30
0.0
 10
18.35260087668046
 20
26.83103465796427
 30
0.0
 10
18.35661647429844
 20
26.82130712969365
 30
0.0
 10
18.36403854968272
 20
26.80170316499279
 30
0.0
 10
18.36737379572077
 20
26.79180931493611
 30
0.0
 10
18.373272317103
 20
26.77183289541888
 30
0.0
 10
18.37590328397382
 20
26.76176687413127
 30
0.0
 10
18.38102782536859
 20
26.74160124400927
 30
0.0
 10
18.38351421346599
 20
26.73149987834895
 30
0.0
 10
18.39552125287667
 20
26.68088917683237
 30
0.0
 10
18.40363421484871
 20
26.64003571095224
 30
0.0
 10
18.42870917264946
 20
26.51765525673245
 30
0.0
 10
18.44561668528595
 20
26.43601736978402
 30
0.0
 10
18.47468500421557
 20
26.27225867532759
 30
0.0
 10
18.48694967481485
 20
26.19017104092744
 30
0.0
 10
18.5029270060407
 20
26.02521089320627
 30
0.0
 10
18.50670405208123
 20
25.9423442889937
 30
0.0
 10
18.50175887282385
 20
25.81707055865967
 30
0.0
 10
18.49828414787723
 20
25.77501387404277
 30
0.0
 10
18.48651224712469
 20
25.69229521187346
 30
0.0
 10
18.47821892308512
 20
25.65145560216287
 30
0.0
 10
18.46061646083085
 20
25.59131070058782
 30
0.0
 10
18.45388197434302
 20
25.57144957414163
 30
0.0
 10
18.43830198838576
 20
25.53218306211916
 30
0.0
 10
18.42955441151424
 20
25.51304381530872
 30
0.0
 10
18.41001211833034
 20
25.4760612137166
 30
0.0
 10
18.39920551068474
 20
25.45818776297651
 30
0.0
 10
18.38127572804597
 20
25.43240381812362
 30
0.0
 10
18.37501235483209
 20
25.42398028822293
 30
0.0
 10
18.3618828845276
 20
25.40749286819716
 30
0.0
 10
18.35499176682994
 20
25.39940429274435
 30
0.0
 10
18.31948147830284
 20
25.36045513940374
 30
0.0
 10
18.2874496050541
 20
25.33373339620213
 30
0.0
 10
18.23459580289448
 20
25.29953628835493
 30
0.0
 10
18.21609860009686
 20
25.28907018156
 30
0.0
 10
18.17848738995342
 20
25.27037140314414
 30
0.0
 10
18.15927479613179
 20
25.26211025514585
 30
0.0
 10
18.11990513593696
 20
25.24811337036061
 30
0.0
 10
18.09974902578462
 20
25.24237507674889
 30
0.0
 10
18.05825826688427
 20
25.23404976647643
 30
0.0
 10
18.03715791816163
 20
25.23150063924939
 30
0.0
 10
18.00554529162673
 20
25.22952994940475
 30
0.0
 10
17.99498623507214
 20
25.22919381987834
 30
0.0
 10
17.97377249957364
 20
25.22994723614988
 30
0.0
 10
17.96311792198076
 20
25.23106135957367
 30
0.0
 10
17.93257697228722
 20
25.23783726613997
 30
0.0
 10
17.91371710599293
 20
25.24695760085969
 30
0.0
 10
17.8948979413866
 20
25.25620277340035
 30
0.0
  0
SPLINE
  5
7E
330
1F
100
AcDbEntity
  8
0
  6
Continuous
 62
     5
370
     0
100
AcDbSpline
210
0.0
220
0.0
230
1.0
 70
     8
 71
     3
 72
   248
 73
   244
 74
     0
 42
0.000000001
 43
0.00000001
 40
0.0
 40
0.0
 40
0.0
 40
0.0
 40
0.0078124999999993
 40
0.0078124999999993
 40
0.011718749999999
 40
0.011718749999999
 40
0.0156249999999986
 40
0.0156249999999986
 40
0.0234374999999979
 40
0.0234374999999979
 40
0.0312499999999971
 40
0.0312499999999971
 40
0.0351562499999968
 40
0.0351562499999968
 40
0.0390624999999964
 40
0.0390624999999964
 40
0.0468749999999957
 40
0.0468749999999957
 40
0.054687499999995
 40
0.054687499999995
 40
0.0624999999999943
 40
0.0624999999999943
 40
0.0703124999999936
 40
0.0703124999999936
 40
0.0781249999999928
 40
0.0781249999999928
 40
0.0937499999999914
 40
0.0937499999999914
 40
0.10937499999999
 40
0.10937499999999
 40
0.1249999999999886
 40
0.1249999999999886
 40
0.1328124999999878
 40
0.1328124999999878
 40
0.1406249999999871
 40
0.1406249999999871
 40
0.1562499999999857
 40
0.1562499999999857
 40
0.164062499999985
 40
0.164062499999985
 40
0.1718749999999843
 40
0.1718749999999843
 40
0.1874999999999829
 40
0.1874999999999829
 40
0.2031249999999816
 40
0.2031249999999816
 40
0.2109374999999809
 40
0.2109374999999809
 40
0.2187499999999802
 40
0.2187499999999802
 40
0.2343749999999788
 40
0.2343749999999788
 40
0.2499999999999774
 40
0.2499999999999774
 40
0.2578124999999767
 40
0.2578124999999767
 40
0.265624999999976
 40
0.265624999999976
 40
0.2734374999999753
 40
0.2734374999999753
 40
0.2812499999999746
 40
0.2812499999999746
 40
0.2890624999999739
 40
0.2890624999999739
 40
0.2968749999999732
 40
0.2968749999999732
 40
0.3046874999999725
 40
0.3046874999999725
 40
0.3124999999999718
 40
0.3124999999999718
 40
0.3203124999999711
 40
0.3203124999999711
 40
0.3281249999999704
 40
0.3281249999999704
 40
0.3359374999999697
 40
0.3359374999999697
 40
0.343749999999969
 40
0.343749999999969
 40
0.3593749999999676
 40
0.3593749999999676
 40
0.3749999999999662
 40
0.3749999999999662
 40
0.3906249999999648
 40
0.3906249999999648
 40
0.4062499999999634
 40
0.4062499999999634
 40
0.421874999999962
 40
0.421874999999962
 40
0.4374999999999606
 40
0.4374999999999606
 40
0.4687499999999578
 40
0.4687499999999578
 40
0.4843749999999564
 40
0.4843749999999564
 40
0.499999999999955
 40
0.499999999999955
 40
0.5078124999999544
 40
0.5078124999999544
 40
0.5156249999999536
 40
0.5156249999999536
 40
0.5234374999999529
 40
0.5234374999999529
 40
0.5312499999999523
 40
0.5312499999999523
 40
0.5390624999999515
 40
0.5390624999999515
 40
0.5429687499999512
 40
0.5429687499999512
 40
0.5468749999999508
 40
0.5468749999999508
 40
0.5507812499999505
 40
0.5507812499999505
 40
0.5527343749999503
 40
0.5527343749999503
 40
0.5546874999999502
 40
0.5546874999999502
 40
0.5585937499999498
 40
0.5585937499999498
 40
0.5624999999999495
 40
0.5624999999999495
 40
0.5644531249999494
 40
0.5644531249999494
 40
0.5664062499999493
 40
0.5664062499999493
 40
0.5668945312499493
 40
0.5668945312499493
 40
0.5673828124999493
 40
0.5673828124999493
 40
0.5678710937499492
 40
0.5678710937499492
 40
0.5681152343749492
 40
0.5681152343749492
 40
0.5683593749999492
 40
0.5683593749999492
 40
0.5693359374999493
 40
0.5693359374999493
 40
0.5703124999999494
 40
0.5703124999999494
 40
0.5722656249999497
 40
0.5722656249999497
 40
0.5742187499999499
 40
0.5742187499999499
 40
0.5781249999999504
 40
0.5781249999999504
 40
0.5820312499999508
 40
0.5820312499999508
 40
0.5859374999999513
 40
0.5859374999999513
 40
0.593749999999952
 40
0.593749999999952
 40
0.6093749999999538
 40
0.6093749999999538
 40
0.6171874999999546
 40
0.6171874999999546
 40
0.6249999999999555
 40
0.6249999999999555
 40
0.640624999999957
 40
0.640624999999957
 40
0.6484374999999579
 40
0.6484374999999579
 40
0.6562499999999588
 40
0.6562499999999588
 40
0.6601562499999593
 40
0.6601562499999593
 40
0.6640624999999596
 40
0.6640624999999596
 40
0.6718749999999605
 40
0.6718749999999605
 40
0.6757812499999609
 40
0.6757812499999609
 40
0.6796874999999614
 40
0.6796874999999614
 40
0.6874999999999623
 40
0.6874999999999623
 40
0.6914062499999627
 40
0.6914062499999627
 40
0.6953124999999631
 40
0.6953124999999631
 40
0.7031249999999641
 40
0.7031249999999641
 40
0.7109374999999651
 40
0.7109374999999651
 40
0.718749999999966
 40
0.718749999999966
 40
0.734374999999968
 40
0.734374999999968
 40
0.7421874999999689
 40
0.7421874999999689
 40
0.7460937499999694
 40
0.7460937499999694
 40
0.7499999999999698
 40
0.7499999999999698
 40
0.7539062499999702
 40
0.7539062499999702
 40
0.7578124999999707
 40
0.7578124999999707
 40
0.7656249999999716
 40
0.7656249999999716
 40
0.7734374999999726
 40
0.7734374999999726
 40
0.7812499999999736
 40
0.7812499999999736
 40
0.7890624999999745
 40
0.7890624999999745
 40
0.7968749999999755
 40
0.7968749999999755
 40
0.8046874999999765
 40
0.8046874999999765
 40
0.8124999999999774
 40
0.8124999999999774
 40
0.8203124999999784
 40
0.8203124999999784
 40
0.8281249999999793
 40
0.8281249999999793
 40
0.8437499999999811
 40
0.8437499999999811
 40
0.859374999999983
 40
0.859374999999983
 40
0.8749999999999848
 40
0.8749999999999848
 40
0.8906249999999866
 40
0.8906249999999866
 40
0.9062499999999885
 40
0.9062499999999885
 40
0.9140624999999893
 40
0.9140624999999893
 40
0.9218749999999903
 40
0.9218749999999903
 40
0.9296874999999913
 40
0.9296874999999913
 40
0.9374999999999922
 40
0.9374999999999922
 40
0.9453124999999932
 40
0.9453124999999932
 40
0.9531249999999942
 40
0.9531249999999942
 40
0.9609374999999952
 40
0.9609374999999952
 40
0.9687499999999961
 40
0.9687499999999961
 40
0.9843749999999981
 40
0.9843749999999981
 40
1.0
 40
1.0
 40
1.0
 40
1.0
 10
21.63871778901428
 20
24.96647124786979
 30
0.0
 10
21.60236934781047
 20
24.98444127024628
 30
0.0
 10
21.56625756182224
 20
25.00280440049375
 30
0.0
 10
21.5121299539216
 20
25.03041565792038
 30
0.0
 10
21.49408863689482
 20
25.03962143517677
 30
0.0
 10
21.45796804401913
 20
25.05796993630752
 30
0.0
 10
21.43988112643622
 20
25.067099966501
 30
0.0
 10
21.38586201867301
 20
25.09489145345623
 30
0.0
 10
21.35016521484753
 20
25.11394391038461
 30
0.0
 10
21.28128113296132
 20
25.15621739633904
 30
0.0
 10
21.248130408266
 20
25.17949914414366
 30
0.0
 10
21.19910426410901
 20
25.21558444065857
 30
0.0
 10
21.18287808707771
 20
25.22780534613019
 30
0.0
 10
21.15044773908546
 20
25.25228371134679
 30
0.0
 10
21.13424193261169
 20
25.26453845434217
 30
0.0
 10
21.08577618696224
 20
25.30155462856219
 30
0.0
 10
21.05359803007141
 20
25.32662276773674
 30
0.0
 10
20.99066202773612
 20
25.3782474023639
 30
0.0
 10
20.95994094522548
 20
25.40472896577481
 30
0.0
 10
20.89934574763883
 20
25.45845098333368
 30
0.0
 10
20.86937364742311
 20
25.48560364188031
 30
0.0
 10
20.80997028186115
 20
25.54039355207216
 30
0.0
 10
20.78059973198166
 20
25.56808520534234
 30
0.0
 10
20.72294942252635
 20
25.62444587018963
 30
0.0
 10
20.69466866805082
 20
25.65311399032687
 30
0.0
 10
20.61146993933841
 20
25.74059097320314
 30
0.0
 10
20.55829331348878
 20
25.80096010037152
 30
0.0
 10
20.45491419458329
 20
25.92436320548746
 30
0.0
 10
20.40476766473309
 20
25.98744732699033
 30
0.0
 10
20.30739956746059
 20
26.11623636366786
 30
0.0
 10
20.26007785231035
 20
26.18185154554259
 30
0.0
 10
20.19113526070612
 20
26.28210216050405
 30
0.0
 10
20.16848998063731
 20
26.31585695225349
 30
0.0
 10
20.12387009746297
 20
26.3835978441969
 30
0.0
 10
20.10186676382104
 20
26.41760743388287
 30
0.0
 10
20.03644699950559
 20
26.51990406199402
 30
0.0
 10
19.99369966878878
 20
26.58849474895337
 30
0.0
 10
19.93175538090491
 20
26.69236860526856
 30
0.0
 10
19.91147341136257
 20
26.72715937821371
 30
0.0
 10
19.87174734600157
 20
26.79712116494109
 30
0.0
 10
19.85229663902579
 20
26.83228917847194
 30
0.0
 10
19.7948579273111
 20
26.93820773914543
 30
0.0
 10
19.75773204902778
 20
27.00934953341281
 30
0.0
 10
19.68402284469946
 20
27.15187934105082
 30
0.0
 10
19.64752155633346
 20
27.22330458446602
 30
0.0
 10
19.59475102081493
 20
27.33134164005688
 30
0.0
 10
19.57756696612568
 20
27.36753829756904
 30
0.0
 10
19.543840147684
 20
27.44022264093818
 30
0.0
 10
19.52725673836821
 20
27.47669188117157
 30
0.0
 10
19.47738811110699
 20
27.58604587032206
 30
0.0
 10
19.44390702696391
 20
27.65884173194592
 30
0.0
 10
19.37981653927339
 20
27.80573667094412
 30
0.0
 10
19.34939068493296
 20
27.87991904595926
 30
0.0
 10
19.30439363136798
 20
27.99148383514784
 30
0.0
 10
19.28949238402109
 20
28.02871646807093
 30
0.0
 10
19.26000331732538
 20
28.10332397268287
 30
0.0
 10
19.24544466725926
 20
28.14071208187069
 30
0.0
 10
19.2172871534311
 20
28.21592386701155
 30
0.0
 10
19.20370834383956
 20
28.25375664387631
 30
0.0
 10
19.17691077656335
 20
28.32958559506611
 30
0.0
 10
19.16367491703681
 20
28.36757400829461
 30
0.0
 10
19.13734129771934
 20
28.44361350667722
 30
0.0
 10
19.12429311030805
 20
28.48168708858974
 30
0.0
 10
19.09864116601671
 20
28.55803594227866
 30
0.0
 10
19.08605479450835
 20
28.59631910382173
 30
0.0
 10
19.06186928679366
 20
28.67333345047928
 30
0.0
 10
19.05037921333059
 20
28.71211413005519
 30
0.0
 10
19.02795218469034
 20
28.7899265033562
 30
0.0
 10
19.01694366548928
 20
28.82892572015359
 30
0.0
 10
18.99442547946635
 20
28.90669672473933
 30
0.0
 10
18.98300720993826
 20
28.94551685757564
 30
0.0
 10
18.96037997182144
 20
29.02322347674336
 30
0.0
 10
18.94923288394931
 20
29.0621146150842
 30
0.0
 10
18.92736040310965
 20
29.13999268279712
 30
0.0
 10
18.91660771564318
 20
29.17897341202741
 30
0.0
 10
18.89542170910152
 20
29.25700741731562
 30
0.0
 10
18.88499563900506
 20
29.29606234003125
 30
0.0
 10
18.85464560638664
 20
29.41343795041316
 30
0.0
 10
18.83573466783441
 20
29.491988753762
 30
0.0
 10
18.79938199782326
 20
29.64942410142023
 30
0.0
 10
18.78181300298564
 20
29.72827973693796
 30
0.0
 10
18.7477288113693
 20
29.88623038578274
 30
0.0
 10
18.73137482806878
 20
29.96536201991164
 30
0.0
 10
18.70058694798993
 20
30.12406144963601
 30
0.0
 10
18.68612323380338
 20
30.20362247199271
 30
0.0
 10
18.65827921030803
 20
30.36299061991794
 30
0.0
 10
18.64508429873914
 20
30.44286393662775
 30
0.0
 10
18.62022012404606
 20
30.60279338217006
 30
0.0
 10
18.60828991982583
 20
30.68281935690658
 30
0.0
 10
18.57419749781782
 20
30.92310453557256
 30
0.0
 10
18.55408157699929
 20
31.08361347834386
 30
0.0
 10
18.5254888305148
 20
31.32456986095352
 30
0.0
 10
18.51597469684334
 20
31.40489070328243
 30
0.0
 10
18.49805112279864
 20
31.56566720943891
 30
0.0
 10
18.48975279975839
 20
31.64613643450188
 30
0.0
 10
18.47773179047396
 20
31.76689232096425
 30
0.0
 10
18.47384129672232
 20
31.80715850241742
 30
0.0
 10
18.4664227868807
 20
31.88773510364926
 30
0.0
 10
18.46289729362559
 20
31.92804583132563
 30
0.0
 10
18.45571213269751
 20
32.00865091145779
 30
0.0
 10
18.45198240448626
 20
32.04894046581018
 30
0.0
 10
18.44425935000105
 20
32.12949607713968
 30
0.0
 10
18.44032394162729
 20
32.16976716087147
 30
0.0
 10
18.43332828710002
 20
32.25038895328916
 30
0.0
 10
18.43028477815237
 20
32.29074118477752
 30
0.0
 10
18.42468436936264
 20
32.3511753512966
 30
0.0
 10
18.42259336873836
 20
32.37129849586575
 30
0.0
 10
18.41766009673134
 20
32.41148826585825
 30
0.0
 10
18.41488323996091
 20
32.43155920895435
 30
0.0
 10
18.41001266394415
 20
32.47175381763352
 30
0.0
 10
18.40792760963512
 20
32.49187815195025
 30
0.0
 10
18.40698496096511
 20
32.52223327992672
 30
0.0
 10
18.40704347315691
 20
32.5323804219701
 30
0.0
 10
18.4082649005874
 20
32.55275994054199
 30
0.0
 10
18.40946888954581
 20
32.56301636357741
 30
0.0
 10
18.41486828624675
 20
32.59305492446984
 30
0.0
 10
18.42068234473819
 20
32.61242985284615
 30
0.0
 10
18.43552280104504
 20
32.65023567721503
 30
0.0
 10
18.44459940557669
 20
32.66869545881165
 30
0.0
 10
18.45987817923213
 20
32.69505434931598
 30
0.0
 10
18.46525780446075
 20
32.70365732535058
 30
0.0
 10
18.47664725992839
 20
32.72046031469159
 30
0.0
 10
18.48258156578486
 20
32.72870861944397
 30
0.0
 10
18.49112727883787
 20
32.73829784815491
 30
0.0
 10
18.49291118255018
 20
32.74018610492079
 30
0.0
 10
18.49666318253426
 20
32.74374236697982
 30
0.0
 10
18.49861326169605
 20
32.74542543796213
 30
0.0
 10
18.50296991141612
 20
32.7482057999588
 30
0.0
 10
18.5055933682549
 20
32.74935229446513
 30
0.0
 10
18.50949200678451
 20
32.74852886445208
 30
0.0
 10
18.51067558949207
 20
32.74792004402541
 30
0.0
 10
18.51286795231622
 20
32.746486551901
 30
0.0
 10
18.51387343179058
 20
32.74566694232578
 30
0.0
 10
18.5187448266344
 20
32.74139197465654
 30
0.0
 10
18.52224441747687
 20
32.7375211676223
 30
0.0
 10
18.52941204170908
 20
32.7299867393594
 30
0.0
 10
18.53300294903731
 20
32.72622618996784
 30
0.0
 10
18.54372732419508
 20
32.71489912820707
 30
0.0
 10
18.55081438587358
 20
32.70728275557975
 30
0.0
 10
18.56461513056968
 20
32.69172859223054
 30
0.0
 10
18.57130450300379
 20
32.68378277248958
 30
0.0
 10
18.59096696011495
 20
32.65962090405004
 30
0.0
 10
18.60373616490762
 20
32.64324181122119
 30
0.0
 10
18.6294047540865
 20
32.61058773107042
 30
0.0
 10
18.64231453923177
 20
32.59432106130602
 30
0.0
 10
18.66795649489855
 20
32.56164568215413
 30
0.0
 10
18.68066741675259
 20
32.54521618665436
 30
0.0
 10
18.71846047086841
 20
32.49569898830765
 30
0.0
 10
18.7432759756885
 20
32.46242682942176
 30
0.0
 10
18.81645736354677
 20
32.36174212217824
 30
0.0
 10
18.86380393616339
 20
32.29363004186603
 30
0.0
 10
18.93260465497061
 20
32.18993897079276
 30
0.0
 10
18.95528150206723
 20
32.15519909472711
 30
0.0
 10
19.00055614635655
 20
32.08566509225944
 30
0.0
 10
19.02324394546396
 20
32.05093273233545
 30
0.0
 10
19.09156573559061
 20
31.94691298227571
 30
0.0
 10
19.13770121567195
 20
31.87797316877891
 30
0.0
 10
19.20726992740492
 20
31.77479310654977
 30
0.0
 10
19.23049938632829
 20
31.74042549365276
 30
0.0
 10
19.27676222226817
 20
31.67156373015784
 30
0.0
 10
19.29984746597121
 20
31.63710305073192
 30
0.0
 10
19.33441943095907
 20
31.58537595723373
 30
0.0
 10
19.34592284334881
 20
31.56812031444604
 30
0.0
 10
19.36894428803298
 20
31.53361846354598
 30
0.0
 10
19.38041248298336
 20
31.51634009385879
 30
0.0
 10
19.41427990759349
 20
31.46415833872836
 30
0.0
 10
19.4363399270041
 20
31.42903605045162
 30
0.0
 10
19.46994608787276
 20
31.37668569377243
 30
0.0
 10
19.48139488890696
 20
31.35939480859306
 30
0.0
 10
19.50424341089868
 20
31.32478136534696
 30
0.0
 10
19.51563451166154
 20
31.30745324440305
 30
0.0
 10
19.54977933960289
 20
31.25545050619708
 30
0.0
 10
19.57244312109255
 20
31.22071784420808
 30
0.0
 10
19.60649015381275
 20
31.16865199572986
 30
0.0
 10
19.61785372189275
 20
31.15130610709683
 30
0.0
 10
19.64070121498983
 20
31.11669199987341
 30
0.0
 10
19.65223164135069
 20
31.09945379003432
 30
0.0
 10
19.68686220902389
 20
31.04776451465597
 30
0.0
 10
19.70985237845195
 20
31.01324248086886
 30
0.0
 10
19.75555712127339
 20
30.94402056267449
 30
0.0
 10
19.77825719464245
 20
30.90931132095438
 30
0.0
 10
19.82284059895826
 20
30.83936576844318
 30
0.0
 10
19.84468313613111
 20
30.80410313217178
 30
0.0
 10
19.9093876594628
 20
30.69778405916835
 30
0.0
 10
19.95153014330375
 20
30.62626330540312
 30
0.0
 10
20.01721692866647
 20
30.52057811637838
 30
0.0
 10
20.03953955587006
 20
30.4856252970087
 30
0.0
 10
20.07348359243435
 20
30.43349298193512
 30
0.0
 10
20.08487983346006
 20
30.41616817816132
 30
0.0
 10
20.10797114825417
 20
30.38171141659765
 30
0.0
 10
20.11971980163925
 20
30.36461403538684
 30
0.0
 10
20.14331858246161
 20
30.33048475730017
 30
0.0
 10
20.15510221391022
 20
30.31340994851294
 30
0.0
 10
20.17822698137025
 20
30.27897477498606
 30
0.0
 10
20.18962163394979
 20
30.2616489461391
 30
0.0
 10
20.22362443937929
 20
30.20955455642651
 30
0.0
 10
20.24604583466353
 20
30.17466547514473
 30
0.0
 10
20.29060881508585
 20
30.1047067424651
 30
0.0
 10
20.31274840043273
 20
30.06963580054076
 30
0.0
 10
20.35729149488504
 20
29.99966423483129
 30
0.0
 10
20.37972934408463
 20
29.96478577176874
 30
0.0
 10
20.42504845516461
 20
29.89531499351947
 30
0.0
 10
20.4477375352313
 20
29.8605986574828
 30
0.0
 10
20.49275493057793
 20
29.79093317276693
 30
0.0
 10
20.51519477858459
 20
29.75605599959579
 30
0.0
 10
20.55981985926982
 20
29.68613734213096
 30
0.0
 10
20.58206558978451
 20
29.65113489895622
 30
0.0
 10
20.62660376966101
 20
29.58116016171985
 30
0.0
 10
20.64887678738213
 20
29.54617532782117
 30
0.0
 10
20.69312654328252
 20
29.47601446169836
 30
0.0
 10
20.71512099181794
 20
29.44084985851365
 30
0.0
 10
20.75900213477479
 20
29.3704511150916
 30
0.0
 10
20.78088639482899
 20
29.3352154038822
 30
0.0
 10
20.84615606189954
 20
29.22926103556093
 30
0.0
 10
20.88904766487626
 20
29.1582500414022
 30
0.0
 10
20.97424633404648
 20
29.01596943244981
 30
0.0
 10
21.01635802397668
 20
28.94457786632597
 30
0.0
 10
21.09927849050812
 20
28.80112340066745
 30
0.0
 10
21.14007880005919
 20
28.72905613843761
 30
0.0
 10
21.22133579445281
 20
28.58474455941692
 30
0.0
 10
21.26206471975142
 20
28.51264051605017
 30
0.0
 10
21.34215624996051
 20
28.36772842506181
 30
0.0
 10
21.38181777841117
 20
28.29507439947367
 30
0.0
 10
21.44043888251157
 20
28.18564447628457
 30
0.0
 10
21.4598388935375
 20
28.14909551548518
 30
0.0
 10
21.49784468126231
 20
28.07558836018778
 30
0.0
 10
21.51645653807388
 20
28.03863329850252
 30
0.0
 10
21.55391485066709
 20
27.96484405356876
 30
0.0
 10
21.57267090708919
 20
27.92796329154265
 30
0.0
 10
21.60940239874297
 20
27.8537995480373
 30
0.0
 10
21.62729772399217
 20
27.81647528943991
 30
0.0
 10
21.66368981691416
 20
27.74213666883179
 30
0.0
 10
21.6820298980961
 20
27.70504157322673
 30
0.0
 10
21.71796125583226
 20
27.63046555622625
 30
0.0
 10
21.73543026148094
 20
27.59292163405987
 30
0.0
 10
21.7706524110333
 20
27.51798019355933
 30
0.0
 10
21.78827165424833
 20
27.48051368214287
 30
0.0
 10
21.82321107385739
 20
27.40542656345088
 30
0.0
 10
21.84057861682856
 20
27.36783036207026
 30
0.0
 10
21.89238576913978
 20
27.25488951194909
 30
0.0
 10
21.92652229459558
 20
27.17938869753479
 30
0.0
 10
21.99306135801081
 20
27.02749362190947
 30
0.0
 10
22.02571147268251
 20
26.95122692598991
 30
0.0
 10
22.05731071263807
 20
26.87441876097053
 30
0.0
  0
SPLINE
  5
7F
330
1F
100
AcDbEntity
  8
0
  6
Continuous
 62
     5
370
     0
100
AcDbSpline
210
0.0
220
0.0
230
1.0
 70
     8
 71
     3
 72
    56
 73
    52
 74
     0
 42
0.000000001
 43
0.00000001
 40
0.0
 40
0.0
 40
0.0
 40
0.0
 40
0.015625
 40
0.015625
 40
0.03125
 40
0.03125
 40
0.046875
 40
0.046875
 40
0.0625
 40
0.0625
 40
0.1250000000000001
 40
0.1250000000000001
 40
0.2500000000000001
 40
0.2500000000000001
 40
0.3750000000000002
 40
0.3750000000000002
 40
0.5000000000000002
 40
0.5000000000000002
 40
0.5624999999999999
 40
0.5624999999999999
 40
0.6249999999999996
 40
0.6249999999999996
 40
0.6874999999999993
 40
0.6874999999999993
 40
0.749999999999999
 40
0.749999999999999
 40
0.7656249999999992
 40
0.7656249999999992
 40
0.7812499999999994
 40
0.7812499999999994
 40
0.8124999999999993
 40
0.8124999999999993
 40
0.8437499999999992
 40
0.8437499999999992
 40
0.8749999999999991
 40
0.8749999999999991
 40
0.9062499999999991
 40
0.9062499999999991
 40
0.9218749999999992
 40
0.9218749999999992
 40
0.9374999999999993
 40
0.9374999999999993
 40
0.9531249999999994
 40
0.9531249999999994
 40
0.9687499999999996
 40
0.9687499999999996
 40
0.9765624999999997
 40
0.9765624999999997
 40
0.9843749999999998
 40
0.9843749999999998
 40
1.0
 40
1.0
 40
1.0
 40
1.0
 10
22.05731071263807
 20
26.87441876097053
 30
0.0
 10
22.06188830222312
 20
26.86328904042083
 30
0.0
 10
22.06644621727403
 20
26.85215492971434
 30
0.0
 10
22.07499588083795
 20
26.82976037443994
 30
0.0
 10
22.07894015449287
 20
26.81848933637745
 30
0.0
 10
22.08595488000887
 20
26.79575227649062
 30
0.0
 10
22.08909662823245
 20
26.7843021636686
 30
0.0
 10
22.09509515330423
 20
26.7613383497836
 30
0.0
 10
22.09798206612027
 20
26.74983137323174
 30
0.0
 10
22.11192772482777
 20
26.69218739659373
 30
0.0
 10
22.12108864009408
 20
26.6456269163915
 30
0.0
 10
22.14769571114905
 20
26.50575007855741
 30
0.0
 10
22.16465358071487
 20
26.41232216963517
 30
0.0
 10
22.19422066168362
 20
26.22450640965078
 30
0.0
 10
22.20677559906124
 20
26.13042804233206
 30
0.0
 10
22.22435459958588
 20
25.94169519855699
 30
0.0
 10
22.22939035952502
 20
25.84704161690097
 30
0.0
 10
22.22807585351156
 20
25.70438283448165
 30
0.0
 10
22.22614310567698
 20
25.65665316198781
 30
0.0
 10
22.21837029982224
 20
25.56190131902349
 30
0.0
 10
22.2125500798896
 20
25.51477631965973
 30
0.0
 10
22.19532368789721
 20
25.42125112526332
 30
0.0
 10
22.18381863434199
 20
25.37460611496616
 30
0.0
 10
22.15333864653089
 20
25.28481056278149
 30
0.0
 10
22.13436528551335
 20
25.24145180062012
 30
0.0
 10
22.10417371612467
 20
25.18992249668784
 30
0.0
 10
22.09778695636788
 20
25.1797214829941
 30
0.0
 10
22.0844790741841
 20
25.15986249582049
 30
0.0
 10
22.07754748156886
 20
25.15018241242868
 30
0.0
 10
22.05590567896994
 20
25.12190303187253
 30
0.0
 10
22.04034661724197
 20
25.10406624548613
 30
0.0
 10
22.00692731815688
 20
25.07045978423305
 30
0.0
 10
21.98902480515065
 20
25.05465925983636
 30
0.0
 10
21.95112190893699
 20
25.02523155301875
 30
0.0
 10
21.93146180859308
 20
25.01175015998405
 30
0.0
 10
21.89056528781842
 20
24.98752884842397
 30
0.0
 10
21.86931750753319
 20
24.97680868651514
 30
0.0
 10
21.83581466365923
 20
24.96356531698752
 30
0.0
 10
21.82437721887575
 20
24.95965281739489
 30
0.0
 10
21.80131204194395
 20
24.95303297179517
 30
0.0
 10
21.78963997827994
 20
24.95029077597923
 30
0.0
 10
21.76604734423945
 20
24.94581791878687
 30
0.0
 10
21.75409761639706
 20
24.94399090413016
 30
0.0
 10
21.73020784319533
 20
24.94181991138706
 30
0.0
 10
21.71824888558568
 20
24.941509323603
 30
0.0
 10
21.70026700865754
 20
24.94343576699915
 30
0.0
 10
21.69426129366925
 20
24.94452785907615
 30
0.0
 10
21.68265280480294
 20
24.94753201619666
 30
0.0
 10
21.6769877013566
 20
24.94941985807676
 30
0.0
 10
21.66026842779111
 20
24.95584868562125
 30
0.0
 10
21.64948416503072
 20
24.9611485238802
 30
0.0
 10
21.63871778901428
 20
24.96647124786979
 30
0.0
  0
SPLINE
  5
80
330
1F
100
AcDbEntity
  8
0
  6
Continuous
 62
     5
370
     0
100
AcDbSpline
210
0.0
220
0.0
230
1.0
 70
     8
 71
     3
 72
   172
 73
   168
 74
     0
 42
0.000000001
 43
0.00000001
 40
0.0000000145311568
 40
0.0000000145311568
 40
0.0000000145311568
 40
0.0000000145311568
 40
0.015625
 40
0.015625
 40
0.0234375
 40
0.0234375
 40
0.03125
 40
0.03125
 40
0.0468749999999999
 40
0.0468749999999999
 40
0.0624999999999999
 40
0.0624999999999999
 40
0.0703124999999999
 40
0.0703124999999999
 40
0.0781249999999998
 40
0.0781249999999998
 40
0.0937499999999998
 40
0.0937499999999998
 40
0.1093749999999998
 40
0.1093749999999998
 40
0.1249999999999998
 40
0.1249999999999998
 40
0.1328124999999997
 40
0.1328124999999997
 40
0.1406249999999996
 40
0.1406249999999996
 40
0.1562499999999994
 40
0.1562499999999994
 40
0.1640624999999993
 40
0.1640624999999993
 40
0.1718749999999993
 40
0.1718749999999993
 40
0.1874999999999992
 40
0.1874999999999992
 40
0.2031249999999991
 40
0.2031249999999991
 40
0.2187499999999991
 40
0.2187499999999991
 40
0.2343749999999991
 40
0.2343749999999991
 40
0.2499999999999991
 40
0.2499999999999991
 40
0.2656249999999991
 40
0.2656249999999991
 40
0.2812499999999992
 40
0.2812499999999992
 40
0.2968749999999992
 40
0.2968749999999992
 40
0.3124999999999993
 40
0.3124999999999993
 40
0.3203124999999994
 40
0.3203124999999994
 40
0.3281249999999994
 40
0.3281249999999994
 40
0.3437499999999994
 40
0.3437499999999994
 40
0.3593749999999995
 40
0.3593749999999995
 40
0.3749999999999996
 40
0.3749999999999996
 40
0.3906249999999996
 40
0.3906249999999996
 40
0.4062499999999997
 40
0.4062499999999997
 40
0.4374999999999998
 40
0.4374999999999998
 40
0.4531249999999999
 40
0.4531249999999999
 40
0.4687499999999999
 40
0.4687499999999999
 40
0.484375
 40
0.484375
 40
0.5
 40
0.5
 40
0.5156250000000001
 40
0.5156250000000001
 40
0.5234375000000001
 40
0.5234375000000001
 40
0.5312500000000001
 40
0.5312500000000001
 40
0.5390625000000001
 40
0.5390625000000001
 40
0.5468750000000001
 40
0.5468750000000001
 40
0.5546875000000001
 40
0.5546875000000001
 40
0.5585937500000001
 40
0.5585937500000001
 40
0.5625000000000001
 40
0.5625000000000001
 40
0.5644531250000002
 40
0.5644531250000002
 40
0.5664062500000003
 40
0.5664062500000003
 40
0.5673828125000003
 40
0.5673828125000003
 40
0.5683593750000003
 40
0.5683593750000003
 40
0.5693359375000003
 40
0.5693359375000003
 40
0.5703125000000003
 40
0.5703125000000003
 40
0.5722656250000003
 40
0.5722656250000003
 40
0.5742187500000003
 40
0.5742187500000003
 40
0.5761718750000003
 40
0.5761718750000003
 40
0.5781250000000003
 40
0.5781250000000003
 40
0.5820312500000003
 40
0.5820312500000003
 40
0.5859375000000003
 40
0.5859375000000003
 40
0.5937500000000003
 40
0.5937500000000003
 40
0.6015625000000003
 40
0.6015625000000003
 40
0.6093750000000003
 40
0.6093750000000003
 40
0.6250000000000004
 40
0.6250000000000004
 40
0.6562500000000003
 40
0.6562500000000003
 40
0.6718750000000003
 40
0.6718750000000003
 40
0.6875000000000003
 40
0.6875000000000003
 40
0.7031250000000003
 40
0.7031250000000003
 40
0.7187500000000003
 40
0.7187500000000003
 40
0.7265625000000003
 40
0.7265625000000003
 40
0.7343750000000003
 40
0.7343750000000003
 40
0.7500000000000003
 40
0.7500000000000003
 40
0.7656250000000003
 40
0.7656250000000003
 40
0.7734375000000003
 40
0.7734375000000003
 40
0.7812500000000003
 40
0.7812500000000003
 40
0.7968750000000003
 40
0.7968750000000003
 40
0.8125000000000003
 40
0.8125000000000003
 40
0.8437500000000002
 40
0.8437500000000002
 40
0.8593750000000002
 40
0.8593750000000002
 40
0.8750000000000002
 40
0.8750000000000002
 40
0.8906250000000003
 40
0.8906250000000003
 40
0.9062500000000003
 40
0.9062500000000003
 40
0.9218750000000003
 40
0.9218750000000003
 40
0.9375000000000003
 40
0.9375000000000003
 40
0.9687500000000002
 40
0.9687500000000002
 40
0.9843750000000002
 40
0.9843750000000002
 40
1.0
 40
1.0
 40
1.0
 40
1.0
 10
25.70616568350313
 20
25.00621223380122
 30
0.0
 10
25.62630465813144
 20
25.03250646437796
 30
0.0
 10
25.54828536664795
 20
25.06241249627173
 30
0.0
 10
25.43502142460072
 20
25.1146550291152
 30
0.0
 10
25.39790185470437
 20
25.13331464918713
 30
0.0
 10
25.3252021598215
 20
25.17365287551026
 30
0.0
 10
25.28961785319365
 20
25.19532328119699
 30
0.0
 10
25.18463188271936
 20
25.26379964066578
 30
0.0
 10
25.11691266461277
 20
25.31408576387462
 30
0.0
 10
24.98244178371753
 20
25.41573162170116
 30
0.0
 10
24.91598868047689
 20
25.46731045410415
 30
0.0
 10
24.81935346131505
 20
25.54762027259368
 30
0.0
 10
24.78766089072909
 20
25.57489183946681
 30
0.0
 10
24.72561936059626
 20
25.63073318613541
 30
0.0
 10
24.69524040241765
 20
25.6592739808978
 30
0.0
 10
24.6058452622304
 20
25.74657924957273
 30
0.0
 10
24.54856025897363
 20
25.80701640892995
 30
0.0
 10
24.43730065389584
 20
25.93108927677919
 30
0.0
 10
24.38338731597635
 20
25.99478417917933
 30
0.0
 10
24.2788807613216
 20
26.1253819244502
 30
0.0
 10
24.22839122446561
 20
26.19238494405036
 30
0.0
 10
24.15439769287282
 20
26.29457142963939
 30
0.0
 10
24.1299993191937
 20
26.32892290432808
 30
0.0
 10
24.0817178793157
 20
26.39781111492231
 30
0.0
 10
24.05779246327022
 20
26.43235877925775
 30
0.0
 10
23.98664354060835
 20
26.53630350959717
 30
0.0
 10
23.94017848692264
 20
26.60606538394154
 30
0.0
 10
23.87355969851787
 20
26.71218906394429
 30
0.0
 10
23.85189100720966
 20
26.74782219050373
 30
0.0
 10
23.80963820312346
 20
26.8196101151422
 30
0.0
 10
23.78901861508181
 20
26.85574784997155
 30
0.0
 10
23.72827355053415
 20
26.96469673291398
 30
0.0
 10
23.68918630195447
 20
27.03800725836615
 30
0.0
 10
23.61215232865075
 20
27.18517688993722
 30
0.0
 10
23.57437099879937
 20
27.25911554934994
 30
0.0
 10
23.50052732819944
 20
27.40781968489123
 30
0.0
 10
23.46453882091267
 20
27.48262067418215
 30
0.0
 10
23.39353290829757
 20
27.63268974317854
 30
0.0
 10
23.35858231241193
 20
27.70798995756369
 30
0.0
 10
23.29107679868525
 20
27.85974268372064
 30
0.0
 10
23.25838579386722
 20
27.93612973900587
 30
0.0
 10
23.19519326642652
 20
28.08995696880486
 30
0.0
 10
23.16471920252123
 20
28.16741035068891
 30
0.0
 10
23.10575102332406
 20
28.32326945011008
 30
0.0
 10
23.07719597355816
 20
28.40164585876932
 30
0.0
 10
23.02193622184689
 20
28.55928867504378
 30
0.0
 10
22.9953163541375
 20
28.63859588708565
 30
0.0
 10
22.94474713138644
 20
28.79849480128541
 30
0.0
 10
22.92087027474399
 20
28.8790879118269
 30
0.0
 10
22.88560214129143
 20
28.99997609926607
 30
0.0
 10
22.87393354011289
 20
29.0402946736114
 30
0.0
 10
22.85048714050615
 20
29.12090370998602
 30
0.0
 10
22.83870756103109
 20
29.16119371349387
 30
0.0
 10
22.80359764118652
 20
29.28212263227815
 30
0.0
 10
22.78051072491904
 20
29.362824215938
 30
0.0
 10
22.73726843491935
 20
29.52498209501732
 30
0.0
 10
22.71712597346441
 20
29.60644171464058
 30
0.0
 10
22.67843968016198
 20
29.76977251351797
 30
0.0
 10
22.65975817955559
 20
29.85160825060145
 30
0.0
 10
22.62350812445609
 20
30.01556624748018
 30
0.0
 10
22.60604947634777
 20
30.0977189098401
 30
0.0
 10
22.5730909929098
 20
30.26252002492335
 30
0.0
 10
22.55759319473055
 20
30.34506759687464
 30
0.0
 10
22.51396110575044
 20
30.5931389192983
 30
0.0
 10
22.48898270885411
 20
30.75913540392316
 30
0.0
 10
22.4529900584677
 20
31.00835106884965
 30
0.0
 10
22.44132393032995
 20
31.09147260220331
 30
0.0
 10
22.41904857265079
 20
31.25787398603964
 30
0.0
 10
22.40850469072834
 20
31.34116362520755
 30
0.0
 10
22.38824657426274
 20
31.50786717978984
 30
0.0
 10
22.37847932579364
 20
31.59127664920967
 30
0.0
 10
22.35936020855897
 20
31.75813635320156
 30
0.0
 10
22.35008378051654
 20
31.84159685373094
 30
0.0
 10
22.33254997396275
 20
32.00862816563501
 30
0.0
 10
22.32437802541483
 20
32.0922084761551
 30
0.0
 10
22.31214463909983
 20
32.21758004886504
 30
0.0
 10
22.308075000977
 20
32.25937136118979
 30
0.0
 10
22.29969300059587
 20
32.34293053597186
 30
0.0
 10
22.29536113654762
 20
32.3846965143379
 30
0.0
 10
22.28679808770131
 20
32.46823819781283
 30
0.0
 10
22.28259784092359
 20
32.51001689188014
 30
0.0
 10
22.27548101113496
 20
32.59369829629613
 30
0.0
 10
22.27253612191443
 20
32.63563353672156
 30
0.0
 10
22.27006713196261
 20
32.71936725633062
 30
0.0
 10
22.2706324028599
 20
32.76119253213232
 30
0.0
 10
22.27601723965031
 20
32.82382561901785
 30
0.0
 10
22.27857685864004
 20
32.84473632269191
 30
0.0
 10
22.28591169509593
 20
32.8862844149708
 30
0.0
 10
22.29061801499113
 20
32.90676472411624
 30
0.0
 10
22.30040284118006
 20
32.93671462882136
 30
0.0
 10
22.30412407627385
 20
32.94656797654442
 30
0.0
 10
22.31299846156874
 20
32.96586981515718
 30
0.0
 10
22.31805237025344
 20
32.97512667287415
 30
0.0
 10
22.32713152421742
 20
32.98799548802426
 30
0.0
 10
22.33041161123961
 20
32.99211531449324
 30
0.0
 10
22.33769410923793
 20
32.99987158551832
 30
0.0
 10
22.34170039422953
 20
33.00349261073044
 30
0.0
 10
22.35033378889514
 20
33.00970118127874
 30
0.0
 10
22.35507954990092
 20
33.01235381336738
 30
0.0
 10
22.36498254035291
 20
33.0161966843694
 30
0.0
 10
22.37013781890017
 20
33.01741041121691
 30
0.0
 10
22.38623078098114
 20
33.01887367648146
 30
0.0
 10
22.39695223205961
 20
33.01683947247334
 30
0.0
 10
22.41693632949116
 20
33.0097444172925
 30
0.0
 10
22.42643684323031
 20
33.00465691358022
 30
0.0
 10
22.44426092937159
 20
32.99321731508572
 30
0.0
 10
22.4526309550254
 20
32.98683957218592
 30
0.0
 10
22.4687408685978
 20
32.97331917531563
 30
0.0
 10
22.47647247024288
 20
32.96616646281075
 30
0.0
 10
22.49901807176015
 20
32.9439202707884
 30
0.0
 10
22.51313351951885
 20
32.92811265897968
 30
0.0
 10
22.54007977359483
 20
32.89584913716192
 30
0.0
 10
22.55296257536423
 20
32.87930021029777
 30
0.0
 10
22.5905125669297
 20
32.82887721218028
 30
0.0
 10
22.61405987198622
 20
32.79421175046455
 30
0.0
 10
22.65999207131182
 20
32.72405938463127
 30
0.0
 10
22.68239304529809
 20
32.68858384358931
 30
0.0
 10
22.72705102318674
 20
32.6175310219709
 30
0.0
 10
22.74929275905555
 20
32.58194474666083
 30
0.0
 10
22.81658810740918
 20
32.47556691966313
 30
0.0
 10
22.86247966948109
 20
32.40533083329708
 30
0.0
 10
23.00203163630614
 20
32.19586886078051
 30
0.0
 10
23.0973779697633
 20
32.05776222675951
 30
0.0
 10
23.23863795763081
 20
31.84943417300512
 30
0.0
 10
23.28536239066133
 20
31.77975101191509
 30
0.0
 10
23.37840747935506
 20
31.64011663054851
 30
0.0
 10
23.4248305546213
 20
31.57023340446255
 30
0.0
 10
23.51721471299172
 20
31.43016024554227
 30
0.0
 10
23.56306481118789
 20
31.35986589238114
 30
0.0
 10
23.65245343488665
 20
31.21791596326404
 30
0.0
 10
23.69580038712673
 20
31.14616241647004
 30
0.0
 10
23.76251151241332
 20
31.03950907865533
 30
0.0
 10
23.78506575190866
 20
31.00414126122861
 30
0.0
 10
23.83135483905491
 20
30.93408784998707
 30
0.0
 10
23.85514329620565
 20
30.89943323483812
 30
0.0
 10
23.92735804450194
 20
30.79596020841091
 30
0.0
 10
23.97654226168168
 20
30.72757977058971
 30
0.0
 10
24.07101055042527
 20
30.58856516545071
 30
0.0
 10
24.11649705289082
 20
30.51804797440515
 30
0.0
 10
24.18448451167543
 20
30.41213217583506
 30
0.0
 10
24.20710576644537
 20
30.37680308370645
 30
0.0
 10
24.25258595389399
 20
30.30628224347933
 30
0.0
 10
24.27542113716143
 20
30.27107677159803
 30
0.0
 10
24.34407315616175
 20
30.16554499432056
 30
0.0
 10
24.39003280174231
 20
30.0953012127062
 30
0.0
 10
24.48164999635179
 20
29.95463908063348
 30
0.0
 10
24.52732270362288
 20
29.88422948948377
 30
0.0
 10
24.66348195093488
 20
29.67250440871969
 30
0.0
 10
24.75306826563066
 20
29.53066871688443
 30
0.0
 10
24.88395808457869
 20
29.31589865593161
 30
0.0
 10
24.92706578563135
 20
29.24400685597686
 30
0.0
 10
25.01268062264075
 20
29.09987621485224
 30
0.0
 10
25.05521589119341
 20
29.02765363032231
 30
0.0
 10
25.13983938044086
 20
28.882950131179
 30
0.0
 10
25.18196442909083
 20
28.81049049788564
 30
0.0
 10
25.26547581213973
 20
28.66514435952076
 30
0.0
 10
25.30674583171013
 20
28.59219064101962
 30
0.0
 10
25.38651920624137
 20
28.44468446534174
 30
0.0
 10
25.42479333822196
 20
28.36999954988155
 30
0.0
 10
25.4998778862388
 20
28.21978389931217
 30
0.0
 10
25.53684823685865
 20
28.14434558364651
 30
0.0
 10
25.64792830428096
 20
27.91812830360751
 30
0.0
 10
25.72137722561528
 20
27.7669674934303
 30
0.0
 10
25.82733146850069
 20
27.53778821579133
 30
0.0
 10
25.86193811622502
 20
27.46098401601212
 30
0.0
 10
25.92960547388875
 20
27.30648228427385
 30
0.0
 10
25.96270539720322
 20
27.22880741206836
 30
0.0
 10
25.99514261970338
 20
27.15074959304008
 30
0.0
  0
SPLINE
  5
81
330
1F
100
AcDbEntity
  8
0
  6
Continuous
 62
     5
370
     0
100
AcDbSpline
210
0.0
220
0.0
230
1.0
 70
     8
 71
     3
 72
    56
 73
    52
 74
     0
 42
0.000000001
 43
0.00000001
 40
0.0
 40
0.0
 40
0.0
 40
0.0
 40
0.0312499999999997
 40
0.0312499999999997
 40
0.0624999999999995
 40
0.0624999999999995
 40
0.1249999999999996
 40
0.1249999999999996
 40
0.1874999999999996
 40
0.1874999999999996
 40
0.2499999999999997
 40
0.2499999999999997
 40
0.3749999999999993
 40
0.3749999999999993
 40
0.4999999999999989
 40
0.4999999999999989
 40
0.5624999999999987
 40
0.5624999999999987
 40
0.6249999999999984
 40
0.6249999999999984
 40
0.6874999999999982
 40
0.6874999999999982
 40
0.7187499999999981
 40
0.7187499999999981
 40
0.7499999999999979
 40
0.7499999999999979
 40
0.7812499999999978
 40
0.7812499999999978
 40
0.8124999999999977
 40
0.8124999999999977
 40
0.8437499999999974
 40
0.8437499999999974
 40
0.8593749999999977
 40
0.8593749999999977
 40
0.8749999999999979
 40
0.8749999999999979
 40
0.9062499999999982
 40
0.9062499999999982
 40
0.9218749999999986
 40
0.9218749999999986
 40
0.9374999999999989
 40
0.9374999999999989
 40
0.9531249999999992
 40
0.9531249999999992
 40
0.9687499999999994
 40
0.9687499999999994
 40
0.9765624999999997
 40
0.9765624999999997
 40
0.9843749999999998
 40
0.9843749999999998
 40
1.0
 40
1.0
 40
1.0
 40
1.0
 10
25.99514261970338
 20
27.15074959304008
 30
0.0
 10
26.00507831006727
 20
27.1268339374634
 30
0.0
 10
26.01493317969114
 20
27.1028978537045
 30
0.0
 10
26.03252479477347
 20
27.05449031090567
 30
0.0
 10
26.04047390861391
 20
27.0300725299192
 30
0.0
 10
26.06355852695453
 20
26.95662640169068
 30
0.0
 10
26.07720902250591
 20
26.9072227048368
 30
0.0
 10
26.10227061680129
 20
26.8078492830771
 30
0.0
 10
26.11382581549681
 20
26.75791598075373
 30
0.0
 10
26.13543327622883
 20
26.65766949510221
 30
0.0
 10
26.1454668152906
 20
26.60735157937073
 30
0.0
 10
26.17339993503225
 20
26.45584997734699
 30
0.0
 10
26.18919046318426
 20
26.35400382056066
 30
0.0
 10
26.21391344390255
 20
26.15014073957246
 30
0.0
 10
26.22288145495643
 20
26.04797234521888
 30
0.0
 10
26.22913373466593
 20
25.89421723538451
 30
0.0
 10
26.23001147485804
 20
25.84288133257289
 30
0.0
 10
26.22865247755994
 20
25.73999214649939
 30
0.0
 10
26.22641657059634
 20
25.68834854441993
 30
0.0
 10
26.21766423261095
 20
25.5857207677165
 30
0.0
 10
26.21116666514573
 20
25.53465299443457
 30
0.0
 10
26.19670824752846
 20
25.4585980071763
 30
0.0
 10
26.19109603157074
 20
25.4333757397357
 30
0.0
 10
26.17805144116233
 20
25.38369615336773
 30
0.0
 10
26.17061030800091
 20
25.35918248100392
 30
0.0
 10
26.15348495078451
 20
25.31095127082451
 30
0.0
 10
26.14380254538733
 20
25.28723308751733
 30
0.0
 10
26.12164874794126
 20
25.24078660884478
 30
0.0
 10
26.1090715202574
 20
25.21791561916466
 30
0.0
 10
26.08114473211481
 20
25.1745226640039
 30
0.0
 10
26.0657776752236
 20
25.1539218587816
 30
0.0
 10
26.04039213345837
 20
25.12484327328994
 30
0.0
 10
26.03154125140152
 20
25.11545408458699
 30
0.0
 10
26.01302820475573
 20
25.09730897881329
 30
0.0
 10
26.00336348614785
 20
25.08855624932418
 30
0.0
 10
25.97362112507846
 20
25.06367340987217
 30
0.0
 10
25.95264637247032
 20
25.04876514604812
 30
0.0
 10
25.91899347243396
 20
25.02961348328157
 30
0.0
 10
25.90735655699229
 20
25.02374754682268
 30
0.0
 10
25.88344404085556
 20
25.01339570278907
 30
0.0
 10
25.87126320300492
 20
25.0089697465704
 30
0.0
 10
25.84649015243587
 20
25.00149158682763
 30
0.0
 10
25.83390443850447
 20
24.99841768113637
 30
0.0
 10
25.80836576822316
 20
24.99349624574685
 30
0.0
 10
25.79540924751808
 20
24.99173096908286
 30
0.0
 10
25.77607286685239
 20
24.99123052425099
 30
0.0
 10
25.76962622453421
 20
24.99142354647299
 30
0.0
 10
25.75672988566452
 20
24.9927393177775
 30
0.0
 10
25.75025078351801
 20
24.99385173331761
 30
0.0
 10
25.73106539467376
 20
24.99810295289102
 30
0.0
 10
25.71860416534291
 20
25.00211681355644
 30
0.0
 10
25.70616568350313
 20
25.00621223380122
 30
0.0
  0
SPLINE
  5
82
330
1F
100
AcDbEntity
  8
0
  6
Continuous
 62
     5
370
     0
100
AcDbSpline
210
0.0
220
0.0
230
1.0
 70
     8
 71
     3
 72
   194
 73
   190
 74
     0
 42
0.000000001
 43
0.00000001
 40
0.0000000198162826
 40
0.0000000198162826
 40
0.0000000198162826
 40
0.0000000198162826
 40
0.0078125
 40
0.0078125
 40
0.015625
 40
0.015625
 40
0.0195312500000001
 40
0.0195312500000001
 40
0.0234375000000001
 40
0.0234375000000001
 40
0.0312500000000002
 40
0.0312500000000002
 40
0.0390625000000003
 40
0.0390625000000003
 40
0.0468750000000003
 40
0.0468750000000003
 40
0.0625000000000006
 40
0.0625000000000006
 40
0.0703125000000007
 40
0.0703125000000007
 40
0.0781250000000007
 40
0.0781250000000007
 40
0.0859375000000008
 40
0.0859375000000008
 40
0.0937500000000009
 40
0.0937500000000009
 40
0.1093750000000011
 40
0.1093750000000011
 40
0.1250000000000012
 40
0.1250000000000012
 40
0.1328125000000013
 40
0.1328125000000013
 40
0.1406250000000014
 40
0.1406250000000014
 40
0.1562500000000016
 40
0.1562500000000016
 40
0.1875000000000019
 40
0.1875000000000019
 40
0.203125000000002
 40
0.203125000000002
 40
0.2187500000000021
 40
0.2187500000000021
 40
0.2343750000000023
 40
0.2343750000000023
 40
0.2500000000000024
 40
0.2500000000000024
 40
0.2656250000000026
 40
0.2656250000000026
 40
0.2812500000000027
 40
0.2812500000000027
 40
0.2968750000000029
 40
0.2968750000000029
 40
0.312500000000003
 40
0.312500000000003
 40
0.3281250000000032
 40
0.3281250000000032
 40
0.3437500000000033
 40
0.3437500000000033
 40
0.3593750000000034
 40
0.3593750000000034
 40
0.3750000000000036
 40
0.3750000000000036
 40
0.3906250000000037
 40
0.3906250000000037
 40
0.4062500000000039
 40
0.4062500000000039
 40
0.421875000000004
 40
0.421875000000004
 40
0.4375000000000042
 40
0.4375000000000042
 40
0.4531250000000043
 40
0.4531250000000043
 40
0.4687500000000044
 40
0.4687500000000044
 40
0.5000000000000048
 40
0.5000000000000048
 40
0.5156250000000049
 40
0.5156250000000049
 40
0.5312500000000051
 40
0.5312500000000051
 40
0.5390625000000052
 40
0.5390625000000052
 40
0.5468750000000053
 40
0.5468750000000053
 40
0.5546875000000054
 40
0.5546875000000054
 40
0.5566406250000054
 40
0.5566406250000054
 40
0.5585937500000054
 40
0.5585937500000054
 40
0.5605468750000054
 40
0.5605468750000054
 40
0.5615234375000054
 40
0.5615234375000054
 40
0.5625000000000054
 40
0.5625000000000054
 40
0.5634765625000054
 40
0.5634765625000054
 40
0.5644531250000054
 40
0.5644531250000054
 40
0.5664062500000056
 40
0.5664062500000056
 40
0.5673828125000057
 40
0.5673828125000057
 40
0.5683593750000058
 40
0.5683593750000058
 40
0.5703125000000058
 40
0.5703125000000058
 40
0.5722656250000058
 40
0.5722656250000058
 40
0.5742187500000058
 40
0.5742187500000058
 40
0.5781250000000058
 40
0.5781250000000058
 40
0.5820312500000058
 40
0.5820312500000058
 40
0.5859375000000059
 40
0.5859375000000059
 40
0.5937500000000059
 40
0.5937500000000059
 40
0.6093750000000058
 40
0.6093750000000058
 40
0.6171875000000058
 40
0.6171875000000058
 40
0.6250000000000058
 40
0.6250000000000058
 40
0.6328125000000058
 40
0.6328125000000058
 40
0.6406250000000059
 40
0.6406250000000059
 40
0.6484375000000058
 40
0.6484375000000058
 40
0.6562500000000057
 40
0.6562500000000057
 40
0.6718750000000054
 40
0.6718750000000054
 40
0.6796875000000053
 40
0.6796875000000053
 40
0.6875000000000052
 40
0.6875000000000052
 40
0.6953125000000052
 40
0.6953125000000052
 40
0.7031250000000051
 40
0.7031250000000051
 40
0.7187500000000049
 40
0.7187500000000049
 40
0.7265625000000048
 40
0.7265625000000048
 40
0.7343750000000047
 40
0.7343750000000047
 40
0.7421875000000046
 40
0.7421875000000046
 40
0.7500000000000046
 40
0.7500000000000046
 40
0.7656250000000042
 40
0.7656250000000042
 40
0.7734375000000041
 40
0.7734375000000041
 40
0.781250000000004
 40
0.781250000000004
 40
0.8125000000000036
 40
0.8125000000000036
 40
0.8281250000000032
 40
0.8281250000000032
 40
0.8437500000000029
 40
0.8437500000000029
 40
0.8515625000000028
 40
0.8515625000000028
 40
0.8593750000000027
 40
0.8593750000000027
 40
0.8750000000000024
 40
0.8750000000000024
 40
0.8906250000000021
 40
0.8906250000000021
 40
0.9062500000000018
 40
0.9062500000000018
 40
0.9218750000000016
 40
0.9218750000000016
 40
0.9296875000000014
 40
0.9296875000000014
 40
0.9375000000000013
 40
0.9375000000000013
 40
0.953125000000001
 40
0.953125000000001
 40
0.9687500000000007
 40
0.9687500000000007
 40
0.9843750000000004
 40
0.9843750000000004
 40
1.0
 40
1.0
 40
1.0
 40
1.0
 10
29.91828995932937
 20
24.6668194904535
 30
0.0
 10
29.87340989282653
 20
24.66609538747893
 30
0.0
 10
29.82877943275528
 20
24.66756616240585
 30
0.0
 10
29.74015096484736
 20
24.67606908912451
 30
0.0
 10
29.69616286672699
 20
24.68318838056986
 30
0.0
 10
29.63072326112339
 20
24.69863807829361
 30
0.0
 10
29.60900011230581
 20
24.70457984595643
 30
0.0
 10
29.56574898453493
 20
24.71817957913003
 30
0.0
 10
29.5442010089461
 20
24.7258870348523
 30
0.0
 10
29.4813519683679
 20
24.7512239169182
 30
0.0
 10
29.44135601913163
 20
24.77120982504396
 30
0.0
 10
29.36393804030833
 20
24.81536643827751
 30
0.0
 10
29.32644392101901
 20
24.839419936631
 30
0.0
 10
29.25184247228829
 20
24.88815579406703
 30
0.0
 10
29.21463944684132
 20
24.91268256618043
 30
0.0
 10
29.10297230589417
 20
24.98616847841494
 30
0.0
 10
29.02889712204848
 20
25.03575996151307
 30
0.0
 10
28.92100980834166
 20
25.11539129077029
 30
0.0
 10
28.88566099984028
 20
25.14281130225131
 30
0.0
 10
28.81668198401291
 20
25.19904724552319
 30
0.0
 10
28.78294666664434
 20
25.22787913783931
 30
0.0
 10
28.71670240247875
 20
25.28670381121312
 30
0.0
 10
28.68419238455746
 20
25.31669557833866
 30
0.0
 10
28.62005606108323
 20
25.37751563929904
 30
0.0
 10
28.58843719701241
 20
25.40835097727969
 30
0.0
 10
28.49485372659992
 20
25.50206213491856
 30
0.0
 10
28.43419261955474
 20
25.5661718537689
 30
0.0
 10
28.31673882623398
 20
25.69805315862686
 30
0.0
 10
28.25987850168225
 20
25.76576071789058
 30
0.0
 10
28.17650690306639
 20
25.86913848631719
 30
0.0
 10
28.14903690690647
 20
25.90390116417263
 30
0.0
 10
28.09463614873154
 20
25.97393696172128
 30
0.0
 10
28.06771980743134
 20
26.00922373213691
 30
0.0
 10
27.98802595515752
 20
26.11608287431855
 30
0.0
 10
27.93656169622298
 20
26.18834208722724
 30
0.0
 10
27.78959409905559
 20
26.40857245532187
 30
0.0
 10
27.70102669166145
 20
26.56010174468664
 30
0.0
 10
27.5738658226908
 20
26.79024294541766
 30
0.0
 10
27.53253893973048
 20
26.86748711539912
 30
0.0
 10
27.4521822350269
 20
27.02312485212468
 30
0.0
 10
27.41302788110541
 20
27.10145610582279
 30
0.0
 10
27.33647837081867
 20
27.25899887533885
 30
0.0
 10
27.2992256343825
 20
27.33828165482382
 30
0.0
 10
27.22698918325295
 20
27.49798258024697
 30
0.0
 10
27.19210282170475
 20
27.57844943946686
 30
0.0
 10
27.12484365307329
 20
27.74064088292683
 30
0.0
 10
27.09229711771183
 20
27.82227853752002
 30
0.0
 10
27.02866033284161
 20
27.98628253875592
 30
0.0
 10
26.99771949564975
 20
28.06872364789538
 30
0.0
 10
26.93780551796239
 20
28.2345904564843
 30
0.0
 10
26.90882954156161
 20
28.318043281374
 30
0.0
 10
26.85282741685873
 20
28.48538764181155
 30
0.0
 10
26.82590287321978
 20
28.56937246629799
 30
0.0
 10
26.77355773082753
 20
28.73777889332336
 30
0.0
 10
26.74768839096254
 20
28.82207017175919
 30
0.0
 10
26.69759034165094
 20
28.99112920311168
 30
0.0
 10
26.67352109071636
 20
29.07594326622196
 30
0.0
 10
26.62807551379703
 20
29.24635347596649
 30
0.0
 10
26.60657098200182
 20
29.33191238886632
 30
0.0
 10
26.56518149804625
 20
29.50350057554504
 30
0.0
 10
26.54520832995701
 20
29.58952927734917
 30
0.0
 10
26.50683696720005
 20
29.76183126331624
 30
0.0
 10
26.48847947598256
 20
29.84813104454214
 30
0.0
 10
26.45390079386879
 20
30.02111440335547
 30
0.0
 10
26.43765872766155
 20
30.10779423059491
 30
0.0
 10
26.40686352636546
 20
30.28145730946282
 30
0.0
 10
26.39222627853011
 20
30.36842544984169
 30
0.0
 10
26.36428025364473
 20
30.54260039660005
 30
0.0
 10
26.35105954809144
 20
30.62982302543638
 30
0.0
 10
26.32569779940949
 20
30.80446224952168
 30
0.0
 10
26.31352235690932
 20
30.8918779723267
 30
0.0
 10
26.28961744992309
 20
31.066753549172
 30
0.0
 10
26.27790854703272
 20
31.15421946613795
 30
0.0
 10
26.24428831779361
 20
31.4167912058143
 30
0.0
 10
26.22437320827018
 20
31.59212757885213
 30
0.0
 10
26.1959929265419
 20
31.85530449908826
 30
0.0
 10
26.18683241515546
 20
31.94306473903983
 30
0.0
 10
26.16949510262241
 20
32.11869883121012
 30
0.0
 10
26.16164013872882
 20
32.20660768451119
 30
0.0
 10
26.14908174048685
 20
32.33838957132055
 30
0.0
 10
26.14471890720456
 20
32.38229970585087
 30
0.0
 10
26.13557852105321
 20
32.47007969753972
 30
0.0
 10
26.13093713924417
 20
32.5139627795677
 30
0.0
 10
26.12388919242059
 20
32.60194598798171
 30
0.0
 10
26.12139272215218
 20
32.64598500815283
 30
0.0
 10
26.12027723974685
 20
32.70111205711525
 30
0.0
 10
26.12014001421321
 20
32.71214096498767
 30
0.0
 10
26.1202735459514
 20
32.73421540051779
 30
0.0
 10
26.12053898865454
 20
32.74525343861172
 30
0.0
 10
26.12198181891912
 20
32.76717085730974
 30
0.0
 10
26.12314545437299
 20
32.77806447173041
 30
0.0
 10
26.1263280368047
 20
32.79419334762029
 30
0.0
 10
26.12763329501331
 20
32.79953366423295
 30
0.0
 10
26.13096166477371
 20
32.81010862928852
 30
0.0
 10
26.1330229009399
 20
32.81539646961505
 30
0.0
 10
26.13793960522569
 20
32.82543815914838
 30
0.0
 10
26.14079204068666
 20
32.83021251529843
 30
0.0
 10
26.14733020113472
 20
32.83924002720116
 30
0.0
 10
26.15105679053259
 20
32.84352766487532
 30
0.0
 10
26.16304915939984
 20
32.85526537306555
 30
0.0
 10
26.17216284417654
 20
32.86165226762355
 30
0.0
 10
26.18648294583912
 20
32.87039754511301
 30
0.0
 10
26.19135280625186
 20
32.87316328952073
 30
0.0
 10
26.20114347021773
 20
32.87851269003097
 30
0.0
 10
26.20605971854311
 20
32.88113854272031
 30
0.0
 10
26.22152325625732
 20
32.88734678959371
 30
0.0
 10
26.23302240138214
 20
32.88921587260572
 30
0.0
 10
26.25552776510009
 20
32.88942074343407
 30
0.0
 10
26.26692492711753
 20
32.88765210839131
 30
0.0
 10
26.28853553032875
 20
32.88128783539155
 30
0.0
 10
26.29887055417752
 20
32.87675877365361
 30
0.0
 10
26.32863912318599
 20
32.86018808937745
 30
0.0
 10
26.34578688466418
 20
32.84573616064134
 30
0.0
 10
26.37720429269774
 20
32.81320013122757
 30
0.0
 10
26.39111748962571
 20
32.79564199750815
 30
0.0
 10
26.41742779208891
 20
32.75955502527321
 30
0.0
 10
26.42979335880951
 20
32.74097272230104
 30
0.0
 10
26.46590931141497
 20
32.68455654580659
 30
0.0
 10
26.48867414540741
 20
32.64605152011222
 30
0.0
 10
26.55842316010234
 20
32.53151978210202
 30
0.0
 10
26.60659797108269
 20
32.45626622978846
 30
0.0
 10
26.67971296616033
 20
32.34394625693388
 30
0.0
 10
26.70422923958915
 20
32.30660128728076
 30
0.0
 10
26.75329392740104
 20
32.23193246759909
 30
0.0
 10
26.7778632550615
 20
32.19462235955731
 30
0.0
 10
26.82715292755439
 20
32.12010137593632
 30
0.0
 10
26.85186735029888
 20
32.08288660898823
 30
0.0
 10
26.90158245593079
 20
32.00864517488471
 30
0.0
 10
26.9266074395203
 20
31.97163447557208
 30
0.0
 10
26.97681474063167
 20
31.89771646011231
 30
0.0
 10
27.00198610862155
 20
31.86080194909452
 30
0.0
 10
27.0522875594591
 20
31.78694579884518
 30
0.0
 10
27.07750431827118
 20
31.75006118125641
 30
0.0
 10
27.15263996471788
 20
31.63906825251148
 30
0.0
 10
27.20165293685453
 20
31.56436291236014
 30
0.0
 10
27.27446120351091
 20
31.45183622099284
 30
0.0
 10
27.29857724045627
 20
31.41422624170038
 30
0.0
 10
27.34642442765426
 20
31.338752639587
 30
0.0
 10
27.3701791490715
 20
31.30090455035892
 30
0.0
 10
27.41802567636118
 20
31.22543051336055
 30
0.0
 10
27.4420831067165
 20
31.18778191183789
 30
0.0
 10
27.49105974994067
 20
31.11305263063201
 30
0.0
 10
27.5160722813922
 20
31.07603344866925
 30
0.0
 10
27.59277732419118
 20
30.96607476516217
 30
0.0
 10
27.64564126955472
 20
30.89387863936658
 30
0.0
 10
27.7228380776661
 20
30.78427740411255
 30
0.0
 10
27.74808699071794
 20
30.74745094403169
 30
0.0
 10
27.79820216104218
 20
30.6735662919553
 30
0.0
 10
27.82313352661724
 20
30.63654752879492
 30
0.0
 10
27.8728032780466
 20
30.5623931361871
 30
0.0
 10
27.8975011375336
 20
30.52523296444044
 30
0.0
 10
27.94751754549149
 20
30.45128850301704
 30
0.0
 10
27.97276092718149
 20
30.41445869320732
 30
0.0
 10
28.04777051221046
 20
30.30353290095101
 30
0.0
 10
28.09706916159625
 20
30.22915377323781
 30
0.0
 10
28.16864241428917
 20
30.1161469778611
 30
0.0
 10
28.19216055866176
 20
30.07827238428545
 30
0.0
 10
28.23911182690674
 20
30.00247170970141
 30
0.0
 10
28.26255924022601
 20
29.96455428221777
 30
0.0
 10
28.38019599287582
 20
29.77520919004942
 30
0.0
 10
28.47652188257747
 20
29.62507539555968
 30
0.0
 10
28.61947109716739
 20
29.39894232778213
 30
0.0
 10
28.66685925838646
 20
29.32340623053097
 30
0.0
 10
28.76020873618049
 20
29.17146995541349
 30
0.0
 10
28.8060089439034
 20
29.09497221189011
 30
0.0
 10
28.87501714808308
 20
28.98041205279966
 30
0.0
 10
28.89811014944569
 20
28.94227999753354
 30
0.0
 10
28.94468591654513
 20
28.86625192379916
 30
0.0
 10
28.96814676199509
 20
28.82834263065824
 30
0.0
 10
29.03850303214186
 20
28.71459884472637
 30
0.0
 10
29.08530305208256
 20
28.63870657591876
 30
0.0
 10
29.1755109341975
 20
28.48486778679195
 30
0.0
 10
29.21933363578775
 20
28.40717248842511
 30
0.0
 10
29.30522147228654
 20
28.25071752963688
 30
0.0
 10
29.34715030088285
 20
28.17187532368837
 30
0.0
 10
29.42875177634929
 20
28.01282459423202
 30
0.0
 10
29.4684692031212
 20
27.93264318891429
 30
0.0
 10
29.52778042146457
 20
27.81221064735123
 30
0.0
 10
29.54753824483871
 20
27.77205884686789
 30
0.0
 10
29.58713348009772
 20
27.69180344378382
 30
0.0
 10
29.60692344771923
 20
27.6516711094852
 30
0.0
 10
29.66606347375235
 20
27.53113489583865
 30
0.0
 10
29.70542277100907
 20
27.45073384399851
 30
0.0
 10
29.78264828178981
 20
27.28926371725397
 30
0.0
 10
29.82052456322658
 20
27.20819324306902
 30
0.0
 10
29.89466900565685
 20
27.04531991172291
 30
0.0
 10
29.93097993114953
 20
26.96353653070983
 30
0.0
 10
30.00252437189692
 20
26.79947908596206
 30
0.0
 10
30.03768799165387
 20
26.71717318986504
 30
0.0
 10
30.07229380591065
 20
26.63461325355999
 30
0.0
  0
SPLINE
  5
83
330
1F
100
AcDbEntity
  8
0
  6
Continuous
 62
     5
370
     0
100
AcDbSpline
210
0.0
220
0.0
230
1.0
 70
     8
 71
     3
 72
    54
 73
    50
 74
     0
 42
0.000000001
 43
0.00000001
 40
0.0
 40
0.0
 40
0.0
 40
0.0
 40
0.0312499999999999
 40
0.0312499999999999
 40
0.0624999999999999
 40
0.0624999999999999
 40
0.1249999999999997
 40
0.1249999999999997
 40
0.1874999999999995
 40
0.1874999999999995
 40
0.2499999999999993
 40
0.2499999999999993
 40
0.3124999999999991
 40
0.3124999999999991
 40
0.3749999999999988
 40
0.3749999999999988
 40
0.4999999999999991
 40
0.4999999999999991
 40
0.5624999999999989
 40
0.5624999999999989
 40
0.6249999999999987
 40
0.6249999999999987
 40
0.6874999999999984
 40
0.6874999999999984
 40
0.7499999999999982
 40
0.7499999999999982
 40
0.7812499999999984
 40
0.7812499999999984
 40
0.8124999999999987
 40
0.8124999999999987
 40
0.8281249999999989
 40
0.8281249999999989
 40
0.8437499999999991
 40
0.8437499999999991
 40
0.8749999999999993
 40
0.8749999999999993
 40
0.8906249999999994
 40
0.8906249999999994
 40
0.9062499999999996
 40
0.9062499999999996
 40
0.9218749999999996
 40
0.9218749999999996
 40
0.9374999999999997
 40
0.9374999999999997
 40
0.9531249999999998
 40
0.9531249999999998
 40
0.9687499999999999
 40
0.9687499999999999
 40
1.0
 40
1.0
 40
1.0
 40
1.0
 10
30.07229380591065
 20
26.63461325356001
 30
0.0
 10
30.08152526326624
 20
26.61258399617464
 30
0.0
 10
30.09068332207885
 20
26.59053036465151
 30
0.0
 10
30.1106501880777
 20
26.54697128099183
 30
0.0
 10
30.12138220902987
 20
26.52544032973537
 30
0.0
 10
30.15222428418441
 20
26.46039784465952
 30
0.0
 10
30.17196284715563
 20
26.41676294628718
 30
0.0
 10
30.20726996238027
 20
26.32810837524632
 30
0.0
 10
30.22268186831168
 20
26.28303668357476
 30
0.0
 10
30.25036188867946
 20
26.1918493121104
 30
0.0
 10
30.26267556693453
 20
26.14574876311924
 30
0.0
 10
30.28515152389565
 20
26.05283322985185
 30
0.0
 10
30.2953041290516
 20
26.00601503318968
 30
0.0
 10
30.31385318859459
 20
25.91179545852374
 30
0.0
 10
30.32224837059866
 20
25.86435590391694
 30
0.0
 10
30.34487254330909
 20
25.72208471406807
 30
0.0
 10
30.35670804911869
 20
25.62702609573762
 30
0.0
 10
30.36888511983477
 20
25.48407556921716
 30
0.0
 10
30.3719785837373
 20
25.43636260691143
 30
0.0
 10
30.37572472828274
 20
25.34077796712935
 30
0.0
 10
30.37638471860691
 20
25.29290676497472
 30
0.0
 10
30.37440263282555
 20
25.19694963941367
 30
0.0
 10
30.37178419593663
 20
25.14880081873523
 30
0.0
 10
30.36166564004038
 20
25.05245421253618
 30
0.0
 10
30.35427387368162
 20
25.00478534942125
 30
0.0
 10
30.33735038234594
 20
24.93454415403007
 30
0.0
 10
30.33072233202532
 20
24.91134385310358
 30
0.0
 10
30.31466056278265
 20
24.8655500244374
 30
0.0
 10
30.30522780220543
 20
24.84300271388062
 30
0.0
 10
30.28839497710111
 20
24.81078947913876
 30
0.0
 10
30.28232283079356
 20
24.80029126017208
 30
0.0
 10
30.26904323326232
 20
24.77988444121009
 30
0.0
 10
30.26183161777698
 20
24.76999014995938
 30
0.0
 10
30.2387098691696
 20
24.74211041151622
 30
0.0
 10
30.22118928187121
 20
24.72566852442668
 30
0.0
 10
30.19067194662826
 20
24.70531962604886
 30
0.0
 10
30.17994307976853
 20
24.69940185141463
 30
0.0
 10
30.1579332166056
 20
24.6894314553482
 30
0.0
 10
30.14658030278213
 20
24.68532290586773
 30
0.0
 10
30.12328662178837
 20
24.67858674680409
 30
0.0
 10
30.11128394700816
 20
24.67595258067045
 30
0.0
 10
30.0873081461914
 20
24.67192609104042
 30
0.0
 10
30.07528998483566
 20
24.67050092154725
 30
0.0
 10
30.05120510972633
 20
24.66859412430217
 30
0.0
 10
30.03913712226695
 20
24.66813724907871
 30
0.0
 10
30.01496621268937
 20
24.66790240040081
 30
0.0
 10
30.00286623294593
 20
24.66806724638504
 30
0.0
 10
29.96658647662175
 20
24.66816956036329
 30
0.0
 10
29.94245289804564
 20
24.667209240654
 30
0.0
 10
29.91828995932938
 20
24.66681949045352
 30
0.0
  0
SPLINE
  5
84
330
1F
100
AcDbEntity
  8
0
  6
Continuous
 62
     5
370
     0
100
AcDbSpline
210
0.0
220
0.0
230
1.0
 70
     8
 71
     3
 72
   204
 73
   200
 74
     0
 42
0.000000001
 43
0.00000001
 40
0.0
 40
0.0
 40
0.0
 40
0.0
 40
0.0078125
 40
0.0078125
 40
0.0156250000000001
 40
0.0156250000000001
 40
0.0175781250000001
 40
0.0175781250000001
 40
0.0195312500000001
 40
0.0195312500000001
 40
0.0234375000000001
 40
0.0234375000000001
 40
0.0312500000000002
 40
0.0312500000000002
 40
0.0390625000000002
 40
0.0390625000000002
 40
0.0429687500000002
 40
0.0429687500000002
 40
0.0468750000000002
 40
0.0468750000000002
 40
0.0625000000000004
 40
0.0625000000000004
 40
0.0781250000000005
 40
0.0781250000000005
 40
0.0859375000000005
 40
0.0859375000000005
 40
0.0937500000000006
 40
0.0937500000000006
 40
0.1093750000000006
 40
0.1093750000000006
 40
0.1250000000000007
 40
0.1250000000000007
 40
0.1406250000000007
 40
0.1406250000000007
 40
0.1562500000000008
 40
0.1562500000000008
 40
0.1718750000000009
 40
0.1718750000000009
 40
0.1875000000000009
 40
0.1875000000000009
 40
0.1953125000000009
 40
0.1953125000000009
 40
0.2031250000000009
 40
0.2031250000000009
 40
0.2187500000000009
 40
0.2187500000000009
 40
0.2343750000000009
 40
0.2343750000000009
 40
0.2500000000000008
 40
0.2500000000000008
 40
0.2656250000000008
 40
0.2656250000000008
 40
0.2812500000000008
 40
0.2812500000000008
 40
0.2968750000000008
 40
0.2968750000000008
 40
0.3125000000000007
 40
0.3125000000000007
 40
0.3437500000000007
 40
0.3437500000000007
 40
0.3593750000000008
 40
0.3593750000000008
 40
0.3750000000000008
 40
0.3750000000000008
 40
0.3906250000000008
 40
0.3906250000000008
 40
0.4062500000000009
 40
0.4062500000000009
 40
0.4218750000000009
 40
0.4218750000000009
 40
0.4375000000000009
 40
0.4375000000000009
 40
0.4453125000000009
 40
0.4453125000000009
 40
0.4531250000000009
 40
0.4531250000000009
 40
0.4687500000000009
 40
0.4687500000000009
 40
0.4843750000000009
 40
0.4843750000000009
 40
0.500000000000001
 40
0.500000000000001
 40
0.507812500000001
 40
0.507812500000001
 40
0.5156250000000011
 40
0.5156250000000011
 40
0.5234375000000011
 40
0.5234375000000011
 40
0.5312500000000012
 40
0.5312500000000012
 40
0.5390625000000012
 40
0.5390625000000012
 40
0.5429687500000012
 40
0.5429687500000012
 40
0.5449218750000012
 40
0.5449218750000012
 40
0.5468750000000012
 40
0.5468750000000012
 40
0.5488281250000012
 40
0.5488281250000012
 40
0.5498046875000012
 40
0.5498046875000012
 40
0.5507812500000013
 40
0.5507812500000013
 40
0.5517578125000013
 40
0.5517578125000013
 40
0.5527343750000013
 40
0.5527343750000013
 40
0.5546875000000012
 40
0.5546875000000012
 40
0.5566406250000011
 40
0.5566406250000011
 40
0.558593750000001
 40
0.558593750000001
 40
0.5625000000000009
 40
0.5625000000000009
 40
0.5664062500000008
 40
0.5664062500000008
 40
0.5683593750000008
 40
0.5683593750000008
 40
0.5703125000000009
 40
0.5703125000000009
 40
0.5742187500000009
 40
0.5742187500000009
 40
0.5781250000000009
 40
0.5781250000000009
 40
0.5859375000000008
 40
0.5859375000000008
 40
0.5898437500000008
 40
0.5898437500000008
 40
0.5937500000000009
 40
0.5937500000000009
 40
0.6093750000000008
 40
0.6093750000000008
 40
0.6250000000000008
 40
0.6250000000000008
 40
0.6328125000000009
 40
0.6328125000000009
 40
0.6406250000000009
 40
0.6406250000000009
 40
0.656250000000001
 40
0.656250000000001
 40
0.6718750000000011
 40
0.6718750000000011
 40
0.6796875000000011
 40
0.6796875000000011
 40
0.6875000000000011
 40
0.6875000000000011
 40
0.6953125000000011
 40
0.6953125000000011
 40
0.703125000000001
 40
0.703125000000001
 40
0.710937500000001
 40
0.710937500000001
 40
0.7187500000000009
 40
0.7187500000000009
 40
0.7343750000000009
 40
0.7343750000000009
 40
0.7421875000000008
 40
0.7421875000000008
 40
0.7500000000000007
 40
0.7500000000000007
 40
0.7578125000000008
 40
0.7578125000000008
 40
0.7656250000000008
 40
0.7656250000000008
 40
0.7812500000000008
 40
0.7812500000000008
 40
0.7968750000000008
 40
0.7968750000000008
 40
0.8125000000000008
 40
0.8125000000000008
 40
0.8281250000000007
 40
0.8281250000000007
 40
0.8437500000000007
 40
0.8437500000000007
 40
0.8515625000000008
 40
0.8515625000000008
 40
0.8593750000000008
 40
0.8593750000000008
 40
0.8671875000000008
 40
0.8671875000000008
 40
0.8750000000000009
 40
0.8750000000000009
 40
0.9062500000000008
 40
0.9062500000000008
 40
0.9140625000000008
 40
0.9140625000000008
 40
0.9218750000000007
 40
0.9218750000000007
 40
0.9375000000000006
 40
0.9375000000000006
 40
0.9531250000000004
 40
0.9531250000000004
 40
0.9687500000000002
 40
0.9687500000000002
 40
0.9843750000000001
 40
0.9843750000000001
 40
1.0
 40
1.0
 40
1.0
 40
1.0
 10
6.095213672996264
 20
10.92267262494276
 30
0.0
 10
6.048209954521872
 20
10.91463096331373
 30
0.0
 10
6.001079494944584
 20
10.9091708733477
 30
0.0
 10
5.906503536774588
 20
10.90466767872336
 30
0.0
 10
5.859059811334006
 20
10.9055884569785
 30
0.0
 10
5.799481270785532
 20
10.91231812925698
 30
0.0
 10
5.787551616714496
 20
10.91394812704393
 30
0.0
 10
5.763661154025345
 20
10.91784270517644
 30
0.0
 10
5.751689522045671
 20
10.92011258312903
 30
0.0
 10
5.716367211209736
 20
10.92783960583832
 30
0.0
 10
5.69342713634729
 20
10.93429458125093
 30
0.0
 10
5.626218876349514
 20
10.95711500599283
 30
0.0
 10
5.583589328676439
 20
10.97699313130486
 30
0.0
 10
5.500597802316133
 20
11.02161027111563
 30
0.0
 10
5.460197569711982
 20
11.04626728235367
 30
0.0
 10
5.399812792966055
 20
11.08371491188968
 30
0.0
 10
5.379717898757031
 20
11.09626637871405
 30
0.0
 10
5.339484313915487
 20
11.12129030597777
 30
0.0
 10
5.319357006007022
 20
11.13379006302146
 30
0.0
 10
5.218913454210514
 20
11.19651287226871
 30
0.0
 10
5.139162955059164
 20
11.24739265225766
 30
0.0
 10
4.985648363199744
 20
11.35610135234877
 30
0.0
 10
4.91201352109091
 20
11.41408030912817
 30
0.0
 10
4.804798109950292
 20
11.50480614674688
 30
0.0
 10
4.769575102809038
 20
11.53564645263853
 30
0.0
 10
4.69990314057922
 20
11.59822559949813
 30
0.0
 10
4.665470280507035
 20
11.62998312388236
 30
0.0
 10
4.563394033362824
 20
11.72667460566868
 30
0.0
 10
4.496983485672701
 20
11.79303966763837
 30
0.0
 10
4.367670026440466
 20
11.9298415256468
 30
0.0
 10
4.304740045478822
 20
12.00024689896179
 30
0.0
 10
4.182197919916495
 20
12.14490905628034
 30
0.0
 10
4.123052567555424
 20
12.21859969276344
 30
0.0
 10
4.008928658983675
 20
12.36831503658167
 30
0.0
 10
3.953891968287669
 20
12.44436067265937
 30
0.0
 10
3.848057284172223
 20
12.59893824857813
 30
0.0
 10
3.797327080929684
 20
12.6775099522811
 30
0.0
 10
3.699784627281625
 20
12.83695152354456
 30
0.0
 10
3.652792505684952
 20
12.91771588358919
 30
0.0
 10
3.583963874390823
 20
13.03983587089207
 30
0.0
 10
3.56137060250341
 20
13.08074760217016
 30
0.0
 10
3.517073795734408
 20
13.16309296009283
 30
0.0
 10
3.49531039523187
 20
13.20449147120336
 30
0.0
 10
3.430938351636966
 20
13.32922557082521
 30
0.0
 10
3.389183090215721
 20
13.4130617296601
 30
0.0
 10
3.307808079451267
 20
13.58198668024075
 30
0.0
 10
3.268286346490926
 20
13.66713296571446
 30
0.0
 10
3.191718779864019
 20
13.83887783139515
 30
0.0
 10
3.154615244219418
 20
13.9255243296923
 30
0.0
 10
3.082634952612474
 20
14.09962515100789
 30
0.0
 10
3.047767011624147
 20
14.18709089029004
 30
0.0
 10
2.979834195033169
 20
14.3626896843521
 30
0.0
 10
2.946728206916146
 20
14.45080752336798
 30
0.0
 10
2.882067466713625
 20
14.62761731471428
 30
0.0
 10
2.850578343370253
 20
14.71633355627931
 30
0.0
 10
2.789799227191931
 20
14.89457993882833
 30
0.0
 10
2.760502832012325
 20
14.98413881236502
 30
0.0
 10
2.676152449508542
 20
15.25390956879282
 30
0.0
 10
2.62481626889277
 20
15.43503805997175
 30
0.0
 10
2.554329786003914
 20
15.70843606085566
 30
0.0
 10
2.531886328498294
 20
15.7998439746613
 30
0.0
 10
2.48874629839874
 20
15.98311684385436
 30
0.0
 10
2.46802857650129
 20
16.07497626589981
 30
0.0
 10
2.428699492790992
 20
16.25924620190289
 30
0.0
 10
2.410200031754489
 20
16.35159008951675
 30
0.0
 10
2.375115628989855
 20
16.53659800826341
 30
0.0
 10
2.358428498374415
 20
16.62924882113591
 30
0.0
 10
2.32605708559779
 20
16.81472268035023
 30
0.0
 10
2.310488224960561
 20
16.90756554967633
 30
0.0
 10
2.281442716631287
 20
17.09361061390061
 30
0.0
 10
2.268063084421994
 20
17.18682947065098
 30
0.0
 10
2.248572258890883
 20
17.32675713092011
 30
0.0
 10
2.242165584058449
 20
17.3734146525555
 30
0.0
 10
2.229313709091858
 20
17.46672250476309
 30
0.0
 10
2.222876826535858
 20
17.5133751011185
 30
0.0
 10
2.20376308650528
 20
17.65335681305989
 30
0.0
 10
2.191327792804375
 20
17.74671527692286
 30
0.0
 10
2.168229232441615
 20
17.93364749331044
 30
0.0
 10
2.157472952581287
 20
18.02720994539358
 30
0.0
 10
2.13627598603088
 20
18.21437319188158
 30
0.0
 10
2.125625991040172
 20
18.3079485568191
 30
0.0
 10
2.110810006156739
 20
18.44845241539167
 30
0.0
 10
2.106078779339661
 20
18.49531390204705
 30
0.0
 10
2.097241727200473
 20
18.58910426184953
 30
0.0
 10
2.09317735451601
 20
18.63603618482632
 30
0.0
 10
2.085128005125099
 20
18.72990826803662
 30
0.0
 10
2.081149607048856
 20
18.77684911079665
 30
0.0
 10
2.072512652802463
 20
18.8706602305645
 30
0.0
 10
2.067873305479775
 20
18.91753250047186
 30
0.0
 10
2.056427580171208
 20
19.01105221292615
 30
0.0
 10
2.049562421529921
 20
19.05769358856103
 30
0.0
 10
2.03908412589281
 20
19.12763680610587
 30
0.0
 10
2.035563421048088
 20
19.15094788844954
 30
0.0
 10
2.031051259507936
 20
19.18600597446009
 30
0.0
 10
2.029680832696639
 20
19.1977078984741
 30
0.0
 10
2.027549322065334
 20
19.22118422971177
 30
0.0
 10
2.026773302791507
 20
19.23298295836094
 30
0.0
 10
2.026573248474772
 20
19.2566243102395
 30
0.0
 10
2.027106868071716
 20
19.26840401424685
 30
0.0
 10
2.030278170711457
 20
19.28592026834882
 30
0.0
 10
2.031735440370137
 20
19.29164831734743
 30
0.0
 10
2.035797078391256
 20
19.30269971870074
 30
0.0
 10
2.038460522323782
 20
19.30809807202916
 30
0.0
 10
2.045059007149896
 20
19.3178535245665
 30
0.0
 10
2.049035956032233
 20
19.32227926578051
 30
0.0
 10
2.058042381449134
 20
19.33001451585096
 30
0.0
 10
2.06296407669139
 20
19.33326017941314
 30
0.0
 10
2.078759204299379
 20
19.34146629051434
 30
0.0
 10
2.090140201929855
 20
19.34468060794083
 30
0.0
 10
2.113564262894729
 20
19.34813964944011
 30
0.0
 10
2.125323541643481
 20
19.34832831044949
 30
0.0
 10
2.148664289905267
 20
19.34659980825473
 30
0.0
 10
2.160384381643637
 20
19.34463495079243
 30
0.0
 10
2.194539261209422
 20
19.33629231278682
 30
0.0
 10
2.216158368802161
 20
19.32758723976117
 30
0.0
 10
2.257576821353863
 20
19.30520661597951
 30
0.0
 10
2.276690719543982
 20
19.29183700468855
 30
0.0
 10
2.303097710558979
 20
19.26907504633697
 30
0.0
 10
2.311523903054118
 20
19.26101612188012
 30
0.0
 10
2.327652101190115
 20
19.243990280984
 30
0.0
 10
2.335309134556564
 20
19.23504912923114
 30
0.0
 10
2.35708420536837
 20
19.20767213981995
 30
0.0
 10
2.370193832460047
 20
19.18853135662553
 30
0.0
 10
2.395177983522519
 20
19.14946904875482
 30
0.0
 10
2.407040149233737
 20
19.12953971209513
 30
0.0
 10
2.442063140104184
 20
19.06939549484331
 30
0.0
 10
2.464744524530978
 20
19.02887754703208
 30
0.0
 10
2.499990421519065
 20
18.96887423465669
 30
0.0
 10
2.511913788554152
 20
18.94898358497902
 30
0.0
 10
2.536253261431703
 20
18.90951375890831
 30
0.0
 10
2.548657744617594
 20
18.88992723552579
 30
0.0
 10
2.61138608871658
 20
18.79244085455396
 30
0.0
 10
2.663648283435649
 20
18.71578024107935
 30
0.0
 10
2.766847554338606
 20
18.56161825426336
 30
0.0
 10
2.817567741957959
 20
18.48394898608667
 30
0.0
 10
2.893641872442352
 20
18.36744096937003
 30
0.0
 10
2.919016055485185
 20
18.32861575976349
 30
0.0
 10
2.970083027610076
 20
18.2511784605194
 30
0.0
 10
2.995780104128401
 20
18.21256923880665
 30
0.0
 10
3.072948042195501
 20
18.09679288504784
 30
0.0
 10
3.124479856346645
 20
18.01966652503772
 30
0.0
 10
3.225657879639268
 20
17.86415249785404
 30
0.0
 10
3.275420131475465
 20
17.78584245323701
 30
0.0
 10
3.348765344342171
 20
17.66750902593833
 30
0.0
 10
3.372939550131133
 20
17.6278811350179
 30
0.0
 10
3.421162318886403
 20
17.54854130896279
 30
0.0
 10
3.44527201987432
 20
17.50887026989317
 30
0.0
 10
3.494545285246074
 20
17.43023313549519
 30
0.0
 10
3.519705922429452
 20
17.39126508212217
 30
0.0
 10
3.572335939152592
 20
17.31487332493886
 30
0.0
 10
3.600053765699328
 20
17.27761581075438
 30
0.0
 10
3.657051219677955
 20
17.20414549250902
 30
0.0
 10
3.686233992586844
 20
17.16786790112453
 30
0.0
 10
3.743863159103674
 20
17.09482014409756
 30
0.0
 10
3.772319048022224
 20
17.05801319574369
 30
0.0
 10
3.853464220831116
 20
16.94510530767471
 30
0.0
 10
3.902523664792878
 20
16.86699802169971
 30
0.0
 10
3.976516580226685
 20
16.75006435074848
 30
0.0
 10
4.001268077203204
 20
16.71113553799809
 30
0.0
 10
4.051808396972389
 20
16.63386179088571
 30
0.0
 10
4.077465608438493
 20
16.59544277660745
 30
0.0
 10
4.12883609677733
 20
16.51863630552283
 30
0.0
 10
4.154550652483412
 20
16.48024956853109
 30
0.0
 10
4.20533125027125
 20
16.40311106643044
 30
0.0
 10
4.230304372511702
 20
16.364306999637
 30
0.0
 10
4.303890913433585
 20
16.24714459313223
 30
0.0
 10
4.351298141615828
 20
16.16810732636187
 30
0.0
 10
4.446938984549255
 20
16.01049794007863
 30
0.0
 10
4.495362259206974
 20
15.93203257421893
 30
0.0
 10
4.59308366569785
 20
15.77559427235228
 30
0.0
 10
4.642473667794597
 20
15.69767304725433
 30
0.0
 10
4.740786555275887
 20
15.54156767161213
 30
0.0
 10
4.789526912786704
 20
15.46328078181379
 30
0.0
 10
4.883350982575048
 20
15.30464879052042
 30
0.0
 10
4.928652581999569
 20
15.22442633091274
 30
0.0
 10
4.999000726779373
 20
15.10544113209656
 30
0.0
 10
5.022968088814208
 20
15.06607095421304
 30
0.0
 10
5.072037655813042
 20
14.98796936618043
 30
0.0
 10
5.097084692591921
 20
14.94920690357793
 30
0.0
 10
5.147166953297775
 20
14.87167532928792
 30
0.0
 10
5.172203304282113
 20
14.8329068519844
 30
0.0
 10
5.221244425740186
 20
14.75478925284267
 30
0.0
 10
5.245155082120045
 20
14.71538715711227
 30
0.0
 10
5.361253673769847
 20
14.51643214093433
 30
0.0
 10
5.444163206297186
 20
14.35165669660672
 30
0.0
 10
5.54885992419255
 20
14.14628392086287
 30
0.0
 10
5.569842196486777
 20
14.10523352895111
 30
0.0
 10
5.612190582280737
 20
14.02334879738414
 30
0.0
 10
5.633535595657175
 20
13.98250258112795
 30
0.0
 10
5.697386541125505
 20
13.85986031120825
 30
0.0
 10
5.739653768770917
 20
13.77792989824784
 30
0.0
 10
5.820085426592627
 20
13.61175973543511
 30
0.0
 10
5.858608654603449
 20
13.52772194170731
 30
0.0
 10
5.935439284619136
 20
13.35952487251518
 30
0.0
 10
5.97406677705379
 20
13.2755457659837
 30
0.0
 10
6.050902289523533
 20
13.10735144497314
 30
0.0
 10
6.088927479534398
 20
13.02303332116862
 30
0.0
 10
6.163367783575345
 20
12.85349081194495
 30
0.0
 10
6.199925322172546
 20
12.76834659287752
 30
0.0
 10
6.236074537537443
 20
12.68297254138242
 30
0.0
  0
SPLINE
  5
85
330
1F
100
AcDbEntity
  8
0
  6
Continuous
 62
     5
370
     0
100
AcDbSpline
210
0.0
220
0.0
230
1.0
 70
     8
 71
     3
 72
    63
 73
    59
 74
     0
 42
0.000000001
 43
0.00000001
 40
0.0
 40
0.0
 40
0.0
 40
0.0
 40
0.03125
 40
0.03125
 40
0.0468749999999999
 40
0.0468749999999999
 40
0.0624999999999998
 40
0.0624999999999998
 40
0.1250000000000003
 40
0.1250000000000003
 40
0.1875000000000008
 40
0.1875000000000008
 40
0.2500000000000013
 40
0.2500000000000013
 40
0.3125000000000017
 40
0.3125000000000017
 40
0.3750000000000023
 40
0.3750000000000023
 40
0.4375000000000028
 40
0.4375000000000028
 40
0.5000000000000033
 40
0.5000000000000033
 40
0.6250000000000034
 40
0.6250000000000034
 40
0.6875000000000036
 40
0.6875000000000036
 40
0.7187500000000032
 40
0.7187500000000032
 40
0.7500000000000029
 40
0.7500000000000029
 40
0.7812500000000026
 40
0.7812500000000026
 40
0.8125000000000022
 40
0.8125000000000022
 40
0.8281250000000021
 40
0.8281250000000021
 40
0.843750000000002
 40
0.843750000000002
 40
0.8515625000000018
 40
0.8515625000000018
 40
0.8593750000000016
 40
0.8671875000000013
 40
0.8671875000000013
 40
0.875000000000001
 40
0.875000000000001
 40
0.8906250000000008
 40
0.8906250000000008
 40
0.9062500000000006
 40
0.9062500000000006
 40
0.9218750000000003
 40
0.9218750000000003
 40
0.9375000000000001
 40
0.9375000000000001
 40
0.9687500000000001
 40
0.9687500000000001
 40
0.9843750000000001
 40
0.9843750000000001
 40
1.0
 40
1.0
 40
1.0
 40
1.0
 10
6.236074537537409
 20
12.68297254138242
 30
0.0
 10
6.244721256380421
 20
12.66254630492314
 30
0.0
 10
6.25322382226314
 20
12.64206831482624
 30
0.0
 10
6.269104329723432
 20
12.61247385923361
 30
0.0
 10
6.274920638697339
 20
12.60279673811407
 30
0.0
 10
6.286804603180654
 20
12.58353273403238
 30
0.0
 10
6.292763880230819
 20
12.57390694115471
 30
0.0
 10
6.321994041229416
 20
12.52557469155662
 30
0.0
 10
6.344725497531499
 20
12.48667457011453
 30
0.0
 10
6.38337346015086
 20
12.40642763136477
 30
0.0
 10
6.399265938310161
 20
12.36507218749419
 30
0.0
 10
6.427114196492608
 20
12.28094795070788
 30
0.0
 10
6.439066739617865
 20
12.23817799568462
 30
0.0
 10
6.460508251437625
 20
12.15175361584923
 30
0.0
 10
6.469976899378894
 20
12.10809189550256
 30
0.0
 10
6.487093196274555
 20
12.02011468175114
 30
0.0
 10
6.494741168884694
 20
11.97573964229003
 30
0.0
 10
6.508457882787534
 20
11.88669254478355
 30
0.0
 10
6.514506956085826
 20
11.84214542281984
 30
0.0
 10
6.525108447284266
 20
11.75300758358122
 30
0.0
 10
6.529674928502343
 20
11.70841727594952
 30
0.0
 10
6.54086723658883
 20
11.5745733239821
 30
0.0
 10
6.545102809339944
 20
11.48525005515421
 30
0.0
 10
6.543010675629437
 20
11.35101914746209
 30
0.0
 10
6.540900902039239
 20
11.30623437061165
 30
0.0
 10
6.534550808649399
 20
11.23896441848385
 30
0.0
 10
6.531896197423163
 20
11.21652543250218
 30
0.0
 10
6.525144891012861
 20
11.17160545481127
 30
0.0
 10
6.521033001526706
 20
11.14903839694008
 30
0.0
 10
6.510862017680063
 20
11.10446340364262
 30
0.0
 10
6.504815119647757
 20
11.08240996480613
 30
0.0
 10
6.489765302068615
 20
11.03913211550359
 30
0.0
 10
6.480883900206722
 20
11.01815625836805
 30
0.0
 10
6.464097560893718
 20
10.98838582646813
 30
0.0
 10
6.457866760533785
 20
10.97868724901133
 30
0.0
 10
6.443970257125108
 20
10.96042259177374
 30
0.0
 10
6.436355419861719
 20
10.95190412089956
 30
0.0
 10
6.42359311785513
 20
10.94036046124959
 30
0.0
 10
6.419085922057336
 20
10.93670337992752
 30
0.0
 10
6.409777999302298
 20
10.93003762890136
 30
0.0
 10
6.400145077261264
 20
10.92398295366914
 30
0.0
 10
6.389823979893568
 20
10.91922221138463
 30
0.0
 10
6.379137503356747
 20
10.91514846865832
 30
0.0
 10
6.373569366114683
 20
10.91344932940535
 30
0.0
 10
6.356784235067747
 20
10.90954187332982
 30
0.0
 10
6.345394901489171
 20
10.90844555012452
 30
0.0
 10
6.322371869036217
 20
10.90810318276387
 30
0.0
 10
6.310894329829363
 20
10.90885274624182
 30
0.0
 10
6.288100521227403
 20
10.91119236592455
 30
0.0
 10
6.27675049797953
 20
10.91277513366266
 30
0.0
 10
6.254081193885167
 20
10.9162114676083
 30
0.0
 10
6.242774167198462
 20
10.91811817622503
 30
0.0
 10
6.208878100043444
 20
10.92451972767466
 30
0.0
 10
6.186330902923586
 20
10.93050464467162
 30
0.0
 10
6.152265652112787
 20
10.93111665463905
 30
0.0
 10
6.140870936383038
 20
10.92996442861788
 30
0.0
 10
6.118054437308306
 20
10.92673371049728
 30
0.0
 10
6.106631804459477
 20
10.92462614799144
 30
0.0
 10
6.09521367299623
 20
10.92267262494276
 30
0.0
  0
SPLINE
  5
86
330
1F
100
AcDbEntity
  8
0
  6
Continuous
 62
     5
370
     0
100
AcDbSpline
210
0.0
220
0.0
230
1.0
 70
     8
 71
     3
 72
   206
 73
   202
 74
     0
 42
0.000000001
 43
0.00000001
 40
0.0
 40
0.0
 40
0.0
 40
0.0
 40
0.0078124999999996
 40
0.0078124999999996
 40
0.0156249999999991
 40
0.0156249999999991
 40
0.0234374999999987
 40
0.0234374999999987
 40
0.0273437499999985
 40
0.0273437499999985
 40
0.0312499999999983
 40
0.0312499999999983
 40
0.0390624999999978
 40
0.0390624999999978
 40
0.0468749999999974
 40
0.0468749999999974
 40
0.0624999999999966
 40
0.0624999999999966
 40
0.0703124999999962
 40
0.0703124999999962
 40
0.0781249999999957
 40
0.0781249999999957
 40
0.0937499999999949
 40
0.0937499999999949
 40
0.109374999999994
 40
0.109374999999994
 40
0.1249999999999931
 40
0.1249999999999931
 40
0.1406249999999922
 40
0.1406249999999922
 40
0.1562499999999913
 40
0.1562499999999913
 40
0.1718749999999905
 40
0.1718749999999905
 40
0.17968749999999
 40
0.17968749999999
 40
0.1874999999999896
 40
0.1874999999999896
 40
0.2031249999999888
 40
0.2031249999999888
 40
0.2187499999999879
 40
0.2187499999999879
 40
0.2499999999999861
 40
0.2499999999999861
 40
0.2656249999999852
 40
0.2656249999999852
 40
0.2812499999999842
 40
0.2812499999999842
 40
0.2968749999999833
 40
0.2968749999999833
 40
0.3124999999999825
 40
0.3124999999999825
 40
0.3281249999999815
 40
0.3281249999999815
 40
0.3437499999999806
 40
0.3437499999999806
 40
0.3593749999999797
 40
0.3593749999999797
 40
0.3749999999999788
 40
0.3749999999999788
 40
0.3906249999999779
 40
0.3906249999999779
 40
0.406249999999977
 40
0.406249999999977
 40
0.4218749999999761
 40
0.4218749999999761
 40
0.4374999999999752
 40
0.4374999999999752
 40
0.4531249999999742
 40
0.4531249999999742
 40
0.4687499999999734
 40
0.4687499999999734
 40
0.4843749999999724
 40
0.4843749999999724
 40
0.4999999999999715
 40
0.4999999999999715
 40
0.507812499999971
 40
0.507812499999971
 40
0.5156249999999706
 40
0.5156249999999706
 40
0.5312499999999697
 40
0.5312499999999697
 40
0.5390624999999691
 40
0.5390624999999691
 40
0.5429687499999689
 40
0.5429687499999689
 40
0.5468749999999687
 40
0.5468749999999687
 40
0.5488281249999686
 40
0.5488281249999686
 40
0.5498046874999686
 40
0.5498046874999686
 40
0.5507812499999687
 40
0.5507812499999687
 40
0.5517578124999688
 40
0.5517578124999688
 40
0.5527343749999688
 40
0.5527343749999688
 40
0.5537109374999689
 40
0.5537109374999689
 40
0.5546874999999689
 40
0.5546874999999689
 40
0.556640624999969
 40
0.556640624999969
 40
0.5576171874999691
 40
0.5576171874999691
 40
0.5585937499999691
 40
0.5585937499999691
 40
0.5605468749999692
 40
0.5605468749999692
 40
0.5624999999999694
 40
0.5624999999999694
 40
0.5644531249999695
 40
0.5644531249999695
 40
0.5664062499999696
 40
0.5664062499999696
 40
0.5703124999999698
 40
0.5703124999999698
 40
0.57421874999997
 40
0.57421874999997
 40
0.5781249999999704
 40
0.5781249999999704
 40
0.5820312499999706
 40
0.5820312499999706
 40
0.5859374999999708
 40
0.5859374999999708
 40
0.5937499999999714
 40
0.5937499999999714
 40
0.6093749999999725
 40
0.6093749999999725
 40
0.617187499999973
 40
0.617187499999973
 40
0.6249999999999736
 40
0.6249999999999736
 40
0.6406249999999748
 40
0.6406249999999748
 40
0.6562499999999759
 40
0.6562499999999759
 40
0.671874999999977
 40
0.671874999999977
 40
0.6796874999999777
 40
0.6796874999999777
 40
0.6874999999999782
 40
0.6874999999999782
 40
0.7031249999999793
 40
0.7031249999999793
 40
0.7109374999999799
 40
0.7109374999999799
 40
0.7187499999999805
 40
0.7187499999999805
 40
0.7265624999999811
 40
0.7265624999999811
 40
0.7343749999999817
 40
0.7343749999999817
 40
0.7421874999999822
 40
0.7421874999999822
 40
0.7499999999999828
 40
0.7499999999999828
 40
0.7656249999999838
 40
0.7656249999999838
 40
0.7812499999999849
 40
0.7812499999999849
 40
0.7968749999999859
 40
0.7968749999999859
 40
0.8124999999999869
 40
0.8124999999999869
 40
0.8281249999999881
 40
0.8281249999999881
 40
0.8359374999999887
 40
0.8359374999999887
 40
0.8437499999999892
 40
0.8437499999999892
 40
0.8515624999999898
 40
0.8515624999999898
 40
0.8593749999999903
 40
0.8593749999999903
 40
0.8749999999999913
 40
0.8749999999999913
 40
0.8906249999999925
 40
0.8906249999999925
 40
0.9062499999999934
 40
0.9062499999999934
 40
0.914062499999994
 40
0.914062499999994
 40
0.9218749999999946
 40
0.9218749999999946
 40
0.9374999999999957
 40
0.9374999999999957
 40
0.9531249999999968
 40
0.9531249999999968
 40
0.957031249999997
 40
0.957031249999997
 40
0.9609374999999972
 40
0.9609374999999972
 40
0.9687499999999978
 40
0.9687499999999978
 40
0.9765624999999984
 40
0.9765624999999984
 40
0.984374999999999
 40
0.984374999999999
 40
1.0
 40
1.0
 40
1.0
 40
1.0
 10
11.03507465756477
 20
11.06701333314369
 30
0.0
 10
10.98781889438401
 20
11.07240423782818
 30
0.0
 10
10.9409663321814
 20
11.07951367271208
 30
0.0
 10
10.84818663076276
 20
11.09767689636099
 30
0.0
 10
10.80225200294091
 20
11.10869876706476
 30
0.0
 10
10.71156121075418
 20
11.13576537583713
 30
0.0
 10
10.66681806354935
 20
11.15186559587083
 30
0.0
 10
10.60084821104256
 20
11.1808956034279
 30
0.0
 10
10.57904811653947
 20
11.19135154371854
 30
0.0
 10
10.53640971504569
 20
11.21328971353999
 30
0.0
 10
10.51547556326921
 20
11.22480572559735
 30
0.0
 10
10.45353532670683
 20
11.26057846534376
 30
0.0
 10
10.41337180576674
 20
11.28603197857048
 30
0.0
 10
10.33413062108959
 20
11.3384813667183
 30
0.0
 10
10.29507839939569
 20
11.36551337975296
 30
0.0
 10
10.17831794181438
 20
11.4471721956824
 30
0.0
 10
10.10126943537285
 20
11.50273608443213
 30
0.0
 10
9.988446142351194
 20
11.58998728559892
 30
0.0
 10
9.951296497110521
 20
11.61972173596044
 30
0.0
 10
9.878026254334214
 20
11.68065230563527
 30
0.0
 10
9.841856076634492
 20
11.71186018972366
 30
0.0
 10
9.734818608767778
 20
11.80701004597495
 30
0.0
 10
9.665718427029995
 20
11.87226797429679
 30
0.0
 10
9.531865477633344
 20
12.00629677570105
 30
0.0
 10
9.467300544389166
 20
12.07521942910948
 30
0.0
 10
9.34177970483519
 20
12.21598102409874
 30
0.0
 10
9.280692480984333
 20
12.28771385403307
 30
0.0
 10
9.161845857172358
 20
12.43386857486712
 30
0.0
 10
9.104232714714003
 20
12.50840864970792
 30
0.0
 10
8.993179832560932
 20
12.66086113363353
 30
0.0
 10
8.939656891878244
 20
12.73870631183806
 30
0.0
 10
8.83589744459403
 20
12.89705228401902
 30
0.0
 10
8.785653406961378
 20
12.97754699251524
 30
0.0
 10
8.712776009382003
 20
13.1003000256854
 30
0.0
 10
8.688898752599037
 20
13.14156513124044
 30
0.0
 10
8.64204819802696
 20
13.22442563467465
 30
0.0
 10
8.61904936195759
 20
13.26605462303055
 30
0.0
 10
8.551078129625717
 20
13.39141940279642
 30
0.0
 10
8.507042984615572
 20
13.47559198632699
 30
0.0
 10
8.421629974078208
 20
13.64517553929416
 30
0.0
 10
8.380143383521206
 20
13.73053583903434
 30
0.0
 10
8.259055486304671
 20
13.98818815060638
 30
0.0
 10
8.183215759277761
 20
14.16223319113918
 30
0.0
 10
8.075048521662639
 20
14.42590698552666
 30
0.0
 10
8.039992857792873
 20
14.51426432378736
 30
0.0
 10
7.97223188267037
 20
14.69207434747574
 30
0.0
 10
7.939458623927827
 20
14.78144836005736
 30
0.0
 10
7.875352427531771
 20
14.96052315723743
 30
0.0
 10
7.843932905972823
 20
15.0502511467351
 30
0.0
 10
7.783499047596517
 20
15.23043064726485
 30
0.0
 10
7.75464162518154
 20
15.32092936088747
 30
0.0
 10
7.699407450766323
 20
15.50267301707442
 30
0.0
 10
7.672991198965417
 20
15.59390607740955
 30
0.0
 10
7.621672849532021
 20
15.77682768207261
 30
0.0
 10
7.596860495391469
 20
15.8685432228084
 30
0.0
 10
7.549281530512445
 20
16.05258969958824
 30
0.0
 10
7.526520979690428
 20
16.14492245856089
 30
0.0
 10
7.482594726058821
 20
16.33006773461483
 30
0.0
 10
7.461412940472547
 20
16.42286657215513
 30
0.0
 10
7.421008770930482
 20
16.6087584622961
 30
0.0
 10
7.401878424573475
 20
16.70189954059384
 30
0.0
 10
7.365706266475476
 20
16.88856196022145
 30
0.0
 10
7.348584878915547
 20
16.98206881304784
 30
0.0
 10
7.315450331942386
 20
17.16928429567462
 30
0.0
 10
7.299411571296314
 20
17.26298826421523
 30
0.0
 10
7.268920174686405
 20
17.45068498970254
 30
0.0
 10
7.254555213507025
 20
17.54469370974534
 30
0.0
 10
7.227331168328804
 20
17.73298532743795
 30
0.0
 10
7.214317979085735
 20
17.82723927365944
 30
0.0
 10
7.188493936430558
 20
18.01574845080077
 30
0.0
 10
7.175785861830472
 20
18.11002736497665
 30
0.0
 10
7.151786508411258
 20
18.29875418067057
 30
0.0
 10
7.140507913861548
 20
18.39320359509592
 30
0.0
 10
7.117900218240328
 20
18.58209639981562
 30
0.0
 10
7.10626647457109
 20
18.67650345407419
 30
0.0
 10
7.089598657415319
 20
18.81820740319588
 30
0.0
 10
7.084221277891014
 20
18.86546335046791
 30
0.0
 10
7.074263244491289
 20
18.96007027391529
 30
0.0
 10
7.069642942166655
 20
19.00741652104925
 30
0.0
 10
7.056438809233541
 20
19.14953359872277
 30
0.0
 10
7.048720917022548
 20
19.24440933966412
 30
0.0
 10
7.032842396935006
 20
19.38620132624616
 30
0.0
 10
7.026810725769817
 20
19.43337558396138
 30
0.0
 10
7.016640963022546
 20
19.50400066225823
 30
0.0
 10
7.013082123708453
 20
19.52752183833659
 30
0.0
 10
7.006432675592304
 20
19.57462106137929
 30
0.0
 10
7.003249418227899
 20
19.59818989196486
 30
0.0
 10
7.00089594688624
 20
19.63379261783169
 30
0.0
 10
7.00054129227421
 20
19.64566934933382
 30
0.0
 10
7.00142280979111
 20
19.66337084223899
 30
0.0
 10
7.001958258135811
 20
19.66925608237828
 30
0.0
 10
7.003725565217767
 20
19.68098258469569
 30
0.0
 10
7.004970969631624
 20
19.68687187806743
 30
0.0
 10
7.008354292674523
 20
19.69832016598236
 30
0.0
 10
7.010474582453585
 20
19.70386806746775
 30
0.0
 10
7.015733805991547
 20
19.71454502653363
 30
0.0
 10
7.018915311032766
 20
19.71971248653472
 30
0.0
 10
7.026147639729638
 20
19.72912989269814
 30
0.0
 10
7.030212349686604
 20
19.73343075496966
 30
0.0
 10
7.039229660840191
 20
19.74122516298877
 30
0.0
 10
7.044184690270246
 20
19.74469980815724
 30
0.0
 10
7.059648291257695
 20
19.75362857764788
 30
0.0
 10
7.071053517250339
 20
19.75781224242173
 30
0.0
 10
7.088383919343333
 20
19.76169748451087
 30
0.0
 10
7.094236212244749
 20
19.76260920781165
 30
0.0
 10
7.106081021864915
 20
19.7637205830252
 30
0.0
 10
7.112099025528468
 20
19.76391368406878
 30
0.0
 10
7.129917666264573
 20
19.7634852461793
 30
0.0
 10
7.141618174962766
 20
19.76188946221802
 30
0.0
 10
7.164741534175849
 20
19.75666090336695
 30
0.0
 10
7.176183303422375
 20
19.75303757078147
 30
0.0
 10
7.198208433783626
 20
19.74449313632891
 30
0.0
 10
7.208867403880208
 20
19.73949466830195
 30
0.0
 10
7.22948786326941
 20
19.72806517275792
 30
0.0
 10
7.23949662519155
 20
19.72159489464173
 30
0.0
 10
7.268178345978966
 20
19.70036675629548
 30
0.0
 10
7.28524117136639
 20
19.68417640617884
 30
0.0
 10
7.316654276597363
 20
19.64910960149992
 30
0.0
 10
7.331009310578921
 20
19.63010626156881
 30
0.0
 10
7.357519733583995
 20
19.59088998318278
 30
0.0
 10
7.369807156443169
 20
19.570684034086
 30
0.0
 10
7.393750418164238
 20
19.52988200197987
 30
0.0
 10
7.405395306932317
 20
19.50927915502068
 30
0.0
 10
7.428734498439204
 20
19.46810398446167
 30
0.0
 10
7.440428856473902
 20
19.44753169501926
 30
0.0
 10
7.476093471925775
 20
19.38617404890318
 30
0.0
 10
7.500789380988706
 20
19.34583693239444
 30
0.0
 10
7.577107731018577
 20
19.22620345440782
 30
0.0
 10
7.631096857873626
 20
19.14838244984302
 30
0.0
 10
7.710832098091472
 20
19.03088041199242
 30
0.0
 10
7.737248914909807
 20
18.99160562977023
 30
0.0
 10
7.78951708652397
 20
18.91268012216491
 30
0.0
 10
7.815319514249039
 20
18.8729968679881
 30
0.0
 10
7.892138093992416
 20
18.75355571042269
 30
0.0
 10
7.942704622558902
 20
18.67350145025313
 30
0.0
 10
8.044758339504549
 20
18.51399889841369
 30
0.0
 10
8.09624536635626
 20
18.43454873281215
 30
0.0
 10
8.198809229117751
 20
18.27537999393317
 30
0.0
 10
8.249839390894836
 20
18.19563087952443
 30
0.0
 10
8.325496818737738
 20
18.07542626794309
 30
0.0
 10
8.350566925105586
 20
18.03526054249421
 30
0.0
 10
8.400464451100481
 20
17.95477028998043
 30
0.0
 10
8.425256594026424
 20
17.91442267967285
 30
0.0
 10
8.499767176742884
 20
17.79346763212934
 30
0.0
 10
8.549734882396574
 20
17.7130233015442
 30
0.0
 10
8.629032589224918
 20
17.59520069970602
 30
0.0
 10
8.656316362299366
 20
17.55648348292418
 30
0.0
 10
8.711785295843185
 20
17.47963887051612
 30
0.0
 10
8.739914380865315
 20
17.4414747820257
 30
0.0
 10
8.79577198045221
 20
17.36488449251522
 30
0.0
 10
8.823520142425611
 20
17.3264711477403
 30
0.0
 10
8.877506370645731
 20
17.24865632987761
 30
0.0
 10
8.903761236729006
 20
17.2092658497316
 30
0.0
 10
8.955382202912853
 20
17.12990332708062
 30
0.0
 10
8.98078818873188
 20
17.08995661500585
 30
0.0
 10
9.03160070567173
 20
17.01007663277034
 30
0.0
 10
9.05699741151065
 20
16.9701311158254
 30
0.0
 10
9.133975049947452
 20
16.85075011537349
 30
0.0
 10
9.186427458360905
 20
16.77181874690798
 30
0.0
 10
9.291222282701021
 20
16.61389238357984
 30
0.0
 10
9.343338056548653
 20
16.53476628504255
 30
0.0
 10
9.446333153395784
 20
16.37579884899063
 30
0.0
 10
9.49725462598084
 20
16.29598189338092
 30
0.0
 10
9.59934984855055
 20
16.13649391487597
 30
0.0
 10
9.650579641921446
 20
16.05685531091175
 30
0.0
 10
9.755219519003285
 20
15.89883931658931
 30
0.0
 10
9.808627785371206
 20
15.82046087496829
 30
0.0
 10
9.885152333249653
 20
15.70081777915816
 30
0.0
 10
9.909958683375564
 20
15.66053076427386
 30
0.0
 10
9.95779434514122
 20
15.57892878649522
 30
0.0
 10
9.980988392269246
 20
15.53770911670654
 30
0.0
 10
10.02747939415875
 20
15.45532930521428
 30
0.0
 10
10.05077814721124
 20
15.41417020375199
 30
0.0
 10
10.09902070489966
 20
15.33280359952157
 30
0.0
 10
10.12419645896744
 20
15.29273027052552
 30
0.0
 10
10.20191122012374
 20
15.17377566704726
 30
0.0
 10
10.25629798654311
 20
15.09596324984823
 30
0.0
 10
10.35925511477351
 20
14.9369738504207
 30
0.0
 10
10.40762071166707
 20
14.85567841961005
 30
0.0
 10
10.5007470798961
 20
14.69100230587451
 30
0.0
 10
10.54529186637159
 20
14.60749668406397
 30
0.0
 10
10.61339180454937
 20
14.48298027749052
 30
0.0
 10
10.63632604146028
 20
14.44161031754387
 30
0.0
 10
10.68351601743253
 20
14.35963483551474
 30
0.0
 10
10.70794724292105
 20
14.3191308255413
 30
0.0
 10
10.78232418915952
 20
14.19824542527366
 30
0.0
 10
10.83301886576839
 20
14.11829727696603
 30
0.0
 10
10.91973236003766
 20
13.9499115637584
 30
0.0
 10
10.95533291064487
 20
13.86123204755119
 30
0.0
 10
11.00127967179577
 20
13.75121914951137
 30
0.0
 10
11.01054037100759
 20
13.72925784137187
 30
0.0
 10
11.0294434300522
 20
13.68555600099566
 30
0.0
 10
11.03911665194487
 20
13.66383332126651
 30
0.0
 10
11.06874857741024
 20
13.59901945067802
 30
0.0
 10
11.08924874669359
 20
13.55624147678266
 30
0.0
 10
11.13063950077927
 20
13.47091136926421
 30
0.0
 10
11.15153002310842
 20
13.42835919950325
 30
0.0
 10
11.19271657929618
 20
13.34291097140159
 30
0.0
 10
11.21291908445832
 20
13.29996081032842
 30
0.0
 10
11.27225097154847
 20
13.17037242543676
 30
0.0
 10
11.31035029180507
 20
13.08313835079444
 30
0.0
 10
11.34834916286787
 20
12.9958461701796
 30
0.0
  0
SPLINE
  5
87
330
1F
100
AcDbEntity
  8
0
  6
Continuous
 62
     5
370
     0
100
AcDbSpline
210
0.0
220
0.0
230
1.0
 70
     8
 71
     3
 72
    58
 73
    54
 74
     0
 42
0.000000001
 43
0.00000001
 40
0.0
 40
0.0
 40
0.0
 40
0.0
 40
0.0312500000000014
 40
0.0312500000000014
 40
0.0468750000000017
 40
0.0468750000000017
 40
0.0625000000000021
 40
0.0625000000000021
 40
0.0937500000000021
 40
0.0937500000000021
 40
0.1250000000000021
 40
0.1250000000000021
 40
0.1875000000000021
 40
0.1875000000000021
 40
0.2500000000000022
 40
0.2500000000000022
 40
0.3125000000000022
 40
0.3125000000000022
 40
0.3750000000000022
 40
0.3750000000000022
 40
0.5000000000000017
 40
0.5000000000000017
 40
0.5625000000000018
 40
0.5625000000000018
 40
0.6250000000000019
 40
0.6250000000000019
 40
0.687500000000002
 40
0.687500000000002
 40
0.718750000000002
 40
0.718750000000002
 40
0.750000000000002
 40
0.750000000000002
 40
0.7812500000000021
 40
0.7812500000000021
 40
0.8125000000000021
 40
0.8125000000000021
 40
0.8281250000000021
 40
0.8281250000000021
 40
0.843750000000002
 40
0.843750000000002
 40
0.8593750000000019
 40
0.8593750000000019
 40
0.8750000000000018
 40
0.8750000000000018
 40
0.8906250000000017
 40
0.8906250000000017
 40
0.9062500000000017
 40
0.9062500000000017
 40
0.9375000000000011
 40
0.9375000000000011
 40
0.9687500000000007
 40
0.9687500000000007
 40
1.0
 40
1.0
 40
1.0
 40
1.0
 10
11.34834916286787
 20
12.9958461701796
 30
0.0
 10
11.35813915917193
 20
12.97335049202274
 30
0.0
 10
11.36790570281266
 20
12.95084895429996
 30
0.0
 10
11.38348500102993
 20
12.91732887573214
 30
0.0
 10
11.38880043392013
 20
12.90618608080285
 30
0.0
 10
11.39923159044772
 20
12.88385059428579
 30
0.0
 10
11.40432233053896
 20
12.87265166064639
 30
0.0
 10
11.41915335568253
 20
12.83894462866772
 30
0.0
 10
11.42848676763264
 20
12.81633487450664
 30
0.0
 10
11.44566084763161
 20
12.77074240934066
 30
0.0
 10
11.45349321051337
 20
12.74775762331882
 30
0.0
 10
11.47464602476492
 20
12.67821755649357
 30
0.0
 10
11.48576520897822
 20
12.63111229678867
 30
0.0
 10
11.50485891186331
 20
12.53611609368976
 30
0.0
 10
11.51279199456126
 20
12.48821479766258
 30
0.0
 10
11.52663130207666
 20
12.39190580225444
 30
0.0
 10
11.53251818781467
 20
12.34349327107209
 30
0.0
 10
11.54272416366141
 20
12.24627650045177
 30
0.0
 10
11.5470406138998
 20
12.19740511482984
 30
0.0
 10
11.55782958765112
 20
12.05081265918762
 30
0.0
 10
11.56227026845848
 20
11.95315284719834
 30
0.0
 10
11.56401603352481
 20
11.80678546150901
 30
0.0
 10
11.56374414921866
 20
11.75801758271263
 30
0.0
 10
11.56098591095827
 20
11.66053693947105
 30
0.0
 10
11.5585057268423
 20
11.61182402146917
 30
0.0
 10
11.55046260679739
 20
11.51447490987035
 30
0.0
 10
11.54493690925684
 20
11.46583778947381
 30
0.0
 10
11.53306271550533
 20
11.39297134949355
 30
0.0
 10
11.52848496931411
 20
11.36863873814097
 30
0.0
 10
11.51773782631377
 20
11.32030677376326
 30
0.0
 10
11.51158948836837
 20
11.29636358628827
 30
0.0
 10
11.49711910918123
 20
11.24910228952401
 30
0.0
 10
11.48876065181177
 20
11.22566720200499
 30
0.0
 10
11.46898909972824
 20
11.18036035487539
 30
0.0
 10
11.45763648923835
 20
11.15852503143435
 30
0.0
 10
11.4370487563444
 20
11.12775691154639
 30
0.0
 10
11.42952382135208
 20
11.11777025667212
 30
0.0
 10
11.41315709051886
 20
11.09905114446677
 30
0.0
 10
11.40436202760388
 20
11.0903564547138
 30
0.0
 10
11.38527702011951
 20
11.0745918922319
 30
0.0
 10
11.37485394786351
 20
11.06746656181096
 30
0.0
 10
11.35309885575442
 20
11.05568437867704
 30
0.0
 10
11.34173149684342
 20
11.05097541412823
 30
0.0
 10
11.31803936446131
 20
11.04386813409614
 30
0.0
 10
11.30566149234579
 20
11.04146852231609
 30
0.0
 10
11.28108477861353
 20
11.03863571800432
 30
0.0
 10
11.26876007748779
 20
11.03815007636793
 30
0.0
 10
11.23171281102729
 20
11.03856682587359
 30
0.0
 10
11.20688479462826
 20
11.04117967939212
 30
0.0
 10
11.1578633726473
 20
11.04902966730321
 30
0.0
 10
11.13357667989512
 20
11.05451820018114
 30
0.0
 10
11.08449120911056
 20
11.0619211584301
 30
0.0
 10
11.05974453212635
 20
11.06419922391049
 30
0.0
 10
11.03507465756477
 20
11.06701333314369
 30
0.0
  0
SPLINE
  5
88
330
1F
100
AcDbEntity
  8
0
  6
Continuous
 62
     5
370
     0
100
AcDbSpline
210
0.0
220
0.0
230
1.0
 70
     8
 71
     3
 72
   214
 73
   210
 74
     0
 42
0.000000001
 43
0.00000001
 40
0.0
 40
0.0
 40
0.0
 40
0.0
 40
0.0156249999999993
 40
0.0156249999999993
 40
0.0234374999999989
 40
0.0234374999999989
 40
0.0312499999999985
 40
0.0312499999999985
 40
0.0390624999999982
 40
0.0390624999999982
 40
0.0468749999999978
 40
0.0468749999999978
 40
0.062499999999997
 40
0.062499999999997
 40
0.0781249999999962
 40
0.0781249999999962
 40
0.0937499999999954
 40
0.0937499999999954
 40
0.1015624999999951
 40
0.1015624999999951
 40
0.1093749999999947
 40
0.1093749999999947
 40
0.1171874999999943
 40
0.1171874999999943
 40
0.1249999999999939
 40
0.1249999999999939
 40
0.1406249999999932
 40
0.1406249999999932
 40
0.1562499999999924
 40
0.1562499999999924
 40
0.1874999999999909
 40
0.1874999999999909
 40
0.2031249999999901
 40
0.2031249999999901
 40
0.2187499999999893
 40
0.2187499999999893
 40
0.2343749999999886
 40
0.2343749999999886
 40
0.2499999999999878
 40
0.2499999999999878
 40
0.265624999999987
 40
0.265624999999987
 40
0.2812499999999863
 40
0.2812499999999863
 40
0.2968749999999855
 40
0.2968749999999855
 40
0.3046874999999851
 40
0.3046874999999851
 40
0.3124999999999848
 40
0.3124999999999848
 40
0.328124999999984
 40
0.328124999999984
 40
0.3437499999999833
 40
0.3437499999999833
 40
0.3749999999999818
 40
0.3749999999999818
 40
0.390624999999981
 40
0.390624999999981
 40
0.4062499999999803
 40
0.4062499999999803
 40
0.4374999999999787
 40
0.4374999999999787
 40
0.453124999999978
 40
0.453124999999978
 40
0.4687499999999774
 40
0.4687499999999774
 40
0.4843749999999766
 40
0.4843749999999766
 40
0.4921874999999763
 40
0.4921874999999763
 40
0.499999999999976
 40
0.499999999999976
 40
0.5078124999999757
 40
0.5078124999999757
 40
0.5156249999999754
 40
0.5156249999999754
 40
0.5234374999999749
 40
0.5234374999999749
 40
0.5312499999999746
 40
0.5312499999999746
 40
0.5390624999999742
 40
0.5390624999999742
 40
0.542968749999974
 40
0.542968749999974
 40
0.5468749999999739
 40
0.5468749999999739
 40
0.5488281249999739
 40
0.5488281249999739
 40
0.5507812499999739
 40
0.5507812499999739
 40
0.5517578124999739
 40
0.5517578124999739
 40
0.5527343749999738
 40
0.5527343749999738
 40
0.5546874999999738
 40
0.5546874999999738
 40
0.5556640624999737
 40
0.5556640624999737
 40
0.5566406249999737
 40
0.5566406249999737
 40
0.5585937499999737
 40
0.5585937499999737
 40
0.5605468749999737
 40
0.5605468749999737
 40
0.5624999999999738
 40
0.5624999999999738
 40
0.5634765624999738
 40
0.5634765624999738
 40
0.5644531249999739
 40
0.5644531249999739
 40
0.566406249999974
 40
0.566406249999974
 40
0.5683593749999741
 40
0.5683593749999741
 40
0.5703124999999742
 40
0.5703124999999742
 40
0.5722656249999745
 40
0.5722656249999745
 40
0.5742187499999746
 40
0.5742187499999746
 40
0.5781249999999748
 40
0.5781249999999748
 40
0.5820312499999751
 40
0.5820312499999751
 40
0.5859374999999754
 40
0.5859374999999754
 40
0.5898437499999756
 40
0.5898437499999756
 40
0.5937499999999759
 40
0.5937499999999759
 40
0.6093749999999768
 40
0.6093749999999768
 40
0.6249999999999778
 40
0.6249999999999778
 40
0.6406249999999788
 40
0.6406249999999788
 40
0.6562499999999797
 40
0.6562499999999797
 40
0.6718749999999807
 40
0.6718749999999807
 40
0.6874999999999816
 40
0.6874999999999816
 40
0.7187499999999836
 40
0.7187499999999836
 40
0.7343749999999845
 40
0.7343749999999845
 40
0.7499999999999855
 40
0.7499999999999855
 40
0.7656249999999865
 40
0.7656249999999865
 40
0.7734374999999869
 40
0.7734374999999869
 40
0.7812499999999875
 40
0.7812499999999875
 40
0.7968749999999885
 40
0.7968749999999885
 40
0.8124999999999893
 40
0.8124999999999893
 40
0.8203124999999899
 40
0.8203124999999899
 40
0.8281249999999905
 40
0.8281249999999905
 40
0.835937499999991
 40
0.835937499999991
 40
0.8437499999999916
 40
0.8437499999999916
 40
0.8515624999999921
 40
0.8515624999999921
 40
0.8554687499999923
 40
0.8554687499999923
 40
0.8593749999999926
 40
0.8593749999999926
 40
0.8749999999999936
 40
0.8749999999999936
 40
0.8828124999999941
 40
0.8828124999999941
 40
0.8906249999999947
 40
0.8906249999999947
 40
0.8984374999999951
 40
0.8984374999999951
 40
0.9062499999999957
 40
0.9062499999999957
 40
0.9140624999999962
 40
0.9140624999999962
 40
0.9179687499999964
 40
0.9179687499999964
 40
0.9218749999999968
 40
0.9218749999999968
 40
0.9296874999999972
 40
0.9296874999999972
 40
0.9374999999999976
 40
0.9374999999999976
 40
0.9414062499999978
 40
0.9414062499999978
 40
0.9453124999999979
 40
0.9453124999999979
 40
0.9531249999999982
 40
0.9531249999999982
 40
0.9570312499999984
 40
0.9570312499999984
 40
0.9609374999999986
 40
0.9609374999999986
 40
0.9687499999999989
 40
0.9687499999999989
 40
0.9765624999999992
 40
0.9765624999999992
 40
0.9843749999999994
 40
0.9843749999999994
 40
1.0
 40
1.0
 40
1.0
 40
1.0
 10
15.52587430374196
 20
10.73764579969114
 30
0.0
 10
15.43592439449381
 20
10.77309237723074
 30
0.0
 10
15.34751358468499
 20
10.81162627671056
 30
0.0
 10
15.21786406222127
 20
10.87537809559024
 30
0.0
 10
15.17515930253278
 20
10.89765523088315
 30
0.0
 10
15.09086015137866
 20
10.944436819657
 30
0.0
 10
15.04925678003064
 20
10.96892326014444
 30
0.0
 10
14.96698725143623
 20
11.0197761246899
 30
0.0
 10
14.92626450942029
 20
11.04618644401323
 30
0.0
 10
14.8458189332813
 20
11.1001748443724
 30
0.0
 10
14.80609440132995
 20
11.12770751296228
 30
0.0
 10
14.68842914015054
 20
11.21193558516258
 30
0.0
 10
14.61204606660768
 20
11.27031435672225
 30
0.0
 10
14.46433387941241
 20
11.39253374495305
 30
0.0
 10
14.39290893290024
 20
11.45627079447209
 30
0.0
 10
14.25300730055419
 20
11.58693109670739
 30
0.0
 10
14.18434328917559
 20
11.6536519055735
 30
0.0
 10
14.08401540139984
 20
11.75661658238375
 30
0.0
 10
14.05103375068433
 20
11.79143632362696
 30
0.0
 10
13.98620209400944
 20
11.86229878146854
 30
0.0
 10
13.95435329932174
 20
11.89834280709548
 30
0.0
 10
13.89162012481609
 20
11.97147310734616
 30
0.0
 10
13.86073039235194
 20
12.00855359733535
 30
0.0
 10
13.79969002150418
 20
12.08351332076894
 30
0.0
 10
13.76951992239087
 20
12.12140293851095
 30
0.0
 10
13.68022604597537
 20
12.23556849604874
 30
0.0
 10
13.6223127388822
 20
12.31257101005558
 30
0.0
 10
13.51102319236816
 20
12.46908089617814
 30
0.0
 10
13.45775738975767
 20
12.54864923907042
 30
0.0
 10
13.30408375652116
 20
12.79073512683175
 30
0.0
 10
13.20931878959197
 20
12.95636802591299
 30
0.0
 10
13.07672978825391
 20
13.21009447427338
 30
0.0
 10
13.03405132778523
 20
13.29550795586128
 30
0.0
 10
12.95037828584811
 20
13.46726456749637
 30
0.0
 10
12.90931299047536
 20
13.55356865728437
 30
0.0
 10
12.82926080423564
 20
13.72732429789734
 30
0.0
 10
12.79036080680772
 20
13.81482382149992
 30
0.0
 10
12.71481616198281
 20
13.99106801914593
 30
0.0
 10
12.67809364570594
 20
14.07976970275808
 30
0.0
 10
12.60645904423368
 20
14.25817258625754
 30
0.0
 10
12.57166215758152
 20
14.347784948102
 30
0.0
 10
12.50467376020057
 20
14.52781504709027
 30
0.0
 10
12.47249878387698
 20
14.61827083974435
 30
0.0
 10
12.40991584680034
 20
14.79977277285469
 30
0.0
 10
12.37934836739168
 20
14.89076561922043
 30
0.0
 10
12.33511418410849
 20
15.02779512936778
 30
0.0
 10
12.32066027613329
 20
15.07356879364945
 30
0.0
 10
12.29251082293007
 20
15.16536948601329
 30
0.0
 10
12.27884041643099
 20
15.21140491277272
 30
0.0
 10
12.23881254104158
 20
15.34983972158541
 30
0.0
 10
12.21336597052897
 20
15.44255381731587
 30
0.0
 10
12.16293932428924
 20
15.6280838445719
 30
0.0
 10
12.13796472522361
 20
15.72090509873271
 30
0.0
 10
12.06571228491173
 20
15.9999982009624
 30
0.0
 10
12.02176160234272
 20
16.18705388783928
 30
0.0
 10
11.96016342053075
 20
16.46865700600029
 30
0.0
 10
11.94040030437585
 20
16.56270602323212
 30
0.0
 10
11.90249690575526
 20
16.75118637791189
 30
0.0
 10
11.88434248163709
 20
16.8456237942815
 30
0.0
 10
11.83200576689452
 20
17.12922803925862
 30
0.0
 10
11.79994303983667
 20
17.31875489847653
 30
0.0
 10
11.75501549134806
 20
17.60355722576237
 30
0.0
 10
11.74054386891702
 20
17.69857286974337
 30
0.0
 10
11.71246046869316
 20
17.88874319691958
 30
0.0
 10
11.69888769045906
 20
17.98390418644911
 30
0.0
 10
11.67323690171242
 20
18.17446787350869
 30
0.0
 10
11.66128162189899
 20
18.2698697960724
 30
0.0
 10
11.64303664613758
 20
18.41292606628934
 30
0.0
 10
11.63689103251891
 20
18.46060348037607
 30
0.0
 10
11.62420509786511
 20
18.55590887791816
 30
0.0
 10
11.61770958339876
 20
18.60354247266118
 30
0.0
 10
11.60490470148491
 20
18.6988329740094
 30
0.0
 10
11.59860121233358
 20
18.74649061677463
 30
0.0
 10
11.58671068175215
 20
18.84189562563327
 30
0.0
 10
11.58120408331952
 20
18.88965306589331
 30
0.0
 10
11.57091959192648
 20
18.98525920482376
 30
0.0
 10
11.5660702415349
 20
19.03309895462327
 30
0.0
 10
11.55615938614075
 20
19.12875188533598
 30
0.0
 10
11.55113233157684
 20
19.17656938060189
 30
0.0
 10
11.5395159449937
 20
19.27200872150082
 30
0.0
 10
11.5325780331471
 20
19.31958691322696
 30
0.0
 10
11.52206723325677
 20
19.39094118502205
 30
0.0
 10
11.51856360390649
 20
19.41472593860688
 30
0.0
 10
11.51249230484726
 20
19.46241265937336
 30
0.0
 10
11.50987713829994
 20
19.48629819433195
 30
0.0
 10
11.50839304003983
 20
19.52224055160799
 30
0.0
 10
11.50831806121623
 20
19.53424326220407
 30
0.0
 10
11.5096524698691
 20
19.55832622185987
 30
0.0
 10
11.51106112228344
 20
19.57025861771087
 30
0.0
 10
11.51490325682646
 20
19.58778922831409
 30
0.0
 10
11.5164764443974
 20
19.59357505716095
 30
0.0
 10
11.52032807389012
 20
19.60500756215631
 30
0.0
 10
11.52260977943875
 20
19.61064068594457
 30
0.0
 10
11.53037349637045
 20
19.62682064919563
 30
0.0
 10
11.53678547980921
 20
19.63683933760315
 30
0.0
 10
11.54817140879909
 20
19.65076905491055
 30
0.0
 10
11.55228999294225
 20
19.65524923398171
 30
0.0
 10
11.56091799834564
 20
19.66363426702033
 30
0.0
 10
11.56544144933612
 20
19.66756230914806
 30
0.0
 10
11.57960843897065
 20
19.67859305091681
 30
0.0
 10
11.58996246433453
 20
19.68500267705706
 30
0.0
 10
11.61155694738214
 20
19.69547770229938
 30
0.0
 10
11.62278387488109
 20
19.69957601261519
 30
0.0
 10
11.64610655514762
 20
19.70546916558427
 30
0.0
 10
11.65810807659513
 20
19.70720796175246
 30
0.0
 10
11.67597182865945
 20
19.70785951423951
 30
0.0
 10
11.68193418192355
 20
19.70775614428149
 30
0.0
 10
11.69387525246106
 20
19.70687423542141
 30
0.0
 10
11.69989510123493
 20
19.70608707283981
 30
0.0
 10
11.71765880245269
 20
19.70268501528319
 30
0.0
 10
11.72901986433171
 20
19.69908047580116
 30
0.0
 10
11.7507440445749
 20
19.68910085861144
 30
0.0
 10
11.76113137844221
 20
19.68260347523821
 30
0.0
 10
11.77982765995971
 20
19.66760413305767
 30
0.0
 10
11.78838225959804
 20
19.65903704572853
 30
0.0
 10
11.80419072295061
 20
19.6408928781595
 30
0.0
 10
11.81141467942624
 20
19.63138150672563
 30
0.0
 10
11.82513423229034
 20
19.61188842539756
 30
0.0
 10
11.83162371300091
 20
19.60190276630489
 30
0.0
 10
11.85051868140663
 20
19.57157546842053
 30
0.0
 10
11.86238188418735
 20
19.55088364919403
 30
0.0
 10
11.8860093846196
 20
19.50943614276356
 30
0.0
 10
11.8977458474011
 20
19.48866278739678
 30
0.0
 10
11.92160482705661
 20
19.44736251262202
 30
0.0
 10
11.93372625565301
 20
19.42683474221166
 30
0.0
 10
11.95855164412168
 20
19.38615058332379
 30
0.0
 10
11.97125168262162
 20
19.36599169484893
 30
0.0
 10
11.99726266141346
 20
19.32606338692557
 30
0.0
 10
12.01051860980978
 20
19.30625890842096
 30
0.0
 10
12.07745840767087
 20
19.20765732219396
 30
0.0
 10
12.13296415597814
 20
19.13002784748954
 30
0.0
 10
12.24027740353996
 20
18.97238068285994
 30
0.0
 10
12.29212716644802
 20
18.89238420836196
 30
0.0
 10
12.39479872300701
 20
18.7317239710727
 30
0.0
 10
12.44583218955836
 20
18.65119761204922
 30
0.0
 10
12.5481993902929
 20
18.49033980749167
 30
0.0
 10
12.59947095578422
 20
18.40996800623681
 30
0.0
 10
12.70223276667187
 20
18.24936635596973
 30
0.0
 10
12.75367826675808
 20
18.16910746132012
 30
0.0
 10
12.85636573650707
 20
18.00845755380038
 30
0.0
 10
12.90762398616481
 20
17.92807832130098
 30
0.0
 10
13.06178195083745
 20
17.68717912963912
 30
0.0
 10
13.16533878623667
 20
17.52706442782148
 30
0.0
 10
13.3212890188732
 20
17.28727221027912
 30
0.0
 10
13.37339316252244
 20
17.20741604033433
 30
0.0
 10
13.47794327278034
 20
17.04791482354504
 30
0.0
 10
13.53038091621999
 20
16.96826463598923
 30
0.0
 10
13.63478928153637
 20
16.8086758720328
 30
0.0
 10
13.68655070251702
 20
16.72860802329212
 30
0.0
 10
13.76501290209601
 20
16.60901275601075
 30
0.0
 10
13.79131727940167
 20
16.56924050467656
 30
0.0
 10
13.84455210001664
 20
16.49008268462395
 30
0.0
 10
13.87146146573974
 20
16.45068409757138
 30
0.0
 10
13.95264024666055
 20
16.33276669615621
 30
0.0
 10
14.00720264135482
 20
16.2544288372795
 30
0.0
 10
14.11462856248825
 20
16.09670383268477
 30
0.0
 10
14.167842901005
 20
16.01753336209441
 30
0.0
 10
14.24933589468709
 20
15.8998100306521
 30
0.0
 10
14.27689959901487
 20
15.86081558846831
 30
0.0
 10
14.33214039997668
 20
15.78289673958143
 30
0.0
 10
14.35978761355933
 20
15.74395387594814
 30
0.0
 10
14.41398234861417
 20
15.66538893623706
 30
0.0
 10
14.44052936894903
 20
15.6257665506368
 30
0.0
 10
14.49128009098443
 20
15.54507445507749
 30
0.0
 10
14.51553053835411
 20
15.50403361705298
 30
0.0
 10
14.56342157008598
 20
15.42157526598881
 30
0.0
 10
14.58707600535897
 20
15.38016630780669
 30
0.0
 10
14.62343295715217
 20
15.31859348903033
 30
0.0
 10
14.63568985382616
 20
15.29815439635691
 30
0.0
 10
14.66074771433449
 20
15.25761224796356
 30
0.0
 10
14.6735349861261
 20
15.23750073550733
 30
0.0
 10
14.73844084941321
 20
15.13754197665646
 30
0.0
 10
14.79350318971484
 20
15.0595129035524
 30
0.0
 10
14.87341327118965
 20
14.94081190421552
 30
0.0
 10
14.89955861292941
 20
14.90094142635553
 30
0.0
 10
14.9508069198767
 20
14.82055665851136
 30
0.0
 10
14.97596076062576
 20
14.78007379123283
 30
0.0
 10
15.02554309467158
 20
14.69866005399141
 30
0.0
 10
15.04996449154558
 20
14.65772480100359
 30
0.0
 10
15.09830327127724
 20
14.57554299644797
 30
0.0
 10
15.12226466830595
 20
14.53432362973663
 30
0.0
 10
15.17071012212192
 20
14.45220771122728
 30
0.0
 10
15.1951924549819
 20
14.41131009466501
 30
0.0
 10
15.23315631633981
 20
14.35072976548102
 30
0.0
 10
15.24601722570811
 20
14.33066373444455
 30
0.0
 10
15.27235404535613
 20
14.29091152075768
 30
0.0
 10
15.28582033703417
 20
14.27121939728626
 30
0.0
 10
15.32674850775279
 20
14.21246994038944
 30
0.0
 10
15.35472792312162
 20
14.17373225744775
 30
0.0
 10
15.4090996242371
 20
14.09527661882992
 30
0.0
 10
15.43547876177569
 20
14.05555054231183
 30
0.0
 10
15.47117570742714
 20
13.99357007817577
 30
0.0
 10
15.4823828379022
 20
13.97248260923497
 30
0.0
 10
15.50360219693452
 20
13.92956965364123
 30
0.0
 10
15.51365298089553
 20
13.90776798029978
 30
0.0
 10
15.5428218052717
 20
13.84175549559072
 30
0.0
 10
15.56097749602226
 20
13.7969502997922
 30
0.0
 10
15.58894704101795
 20
13.73019709368187
 30
0.0
 10
15.59838890507534
 20
13.7080193278214
 30
0.0
 10
15.61787694840976
 20
13.66403704458837
 30
0.0
 10
15.62796718953897
 20
13.64225974152274
 30
0.0
 10
15.65923526138762
 20
13.57754383336933
 30
0.0
 10
15.68127171736441
 20
13.53513554849995
 30
0.0
 10
15.72602630529201
 20
13.45074000824836
 30
0.0
 10
15.7487481953317
 20
13.40875507400695
 30
0.0
 10
15.79348532750187
 20
13.32434875240329
 30
0.0
 10
15.81537232697267
 20
13.28184815740631
 30
0.0
 10
15.87946755749421
 20
13.15337929351484
 30
0.0
 10
15.9204490055204
 20
13.06665331590332
 30
0.0
 10
15.96159473909774
 20
12.98002880741243
 30
0.0
  0
SPLINE
  5
89
330
1F
100
AcDbEntity
  8
0
  6
Continuous
 62
     5
370
     0
100
AcDbSpline
210
0.0
220
0.0
230
1.0
 70
     8
 71
     3
 72
    58
 73
    54
 74
     0
 42
0.000000001
 43
0.00000001
 40
0.0
 40
0.0
 40
0.0
 40
0.0
 40
0.0312499999999981
 40
0.0312499999999981
 40
0.0468749999999975
 40
0.0468749999999975
 40
0.0624999999999969
 40
0.0624999999999969
 40
0.0937499999999966
 40
0.0937499999999966
 40
0.1249999999999962
 40
0.1249999999999962
 40
0.1874999999999961
 40
0.1874999999999961
 40
0.2499999999999961
 40
0.2499999999999961
 40
0.312499999999996
 40
0.312499999999996
 40
0.3749999999999959
 40
0.3749999999999959
 40
0.4999999999999958
 40
0.4999999999999958
 40
0.5624999999999957
 40
0.5624999999999957
 40
0.6249999999999957
 40
0.6249999999999957
 40
0.6874999999999956
 40
0.6874999999999956
 40
0.7499999999999954
 40
0.7499999999999954
 40
0.7812499999999954
 40
0.7812499999999954
 40
0.8124999999999954
 40
0.8124999999999954
 40
0.8281249999999958
 40
0.8281249999999958
 40
0.8437499999999962
 40
0.8437499999999962
 40
0.8593749999999966
 40
0.8593749999999966
 40
0.8749999999999969
 40
0.8749999999999969
 40
0.8906249999999973
 40
0.8906249999999973
 40
0.9062499999999977
 40
0.9062499999999977
 40
0.921874999999998
 40
0.921874999999998
 40
0.9374999999999984
 40
0.9374999999999984
 40
0.9687499999999992
 40
0.9687499999999992
 40
1.0
 40
1.0
 40
1.0
 40
1.0
 10
15.96159473909774
 20
12.98002880741243
 30
0.0
 10
15.97378541375499
 20
12.95435772128018
 30
0.0
 10
15.98605065162677
 20
12.92870133490726
 30
0.0
 10
16.00157852141636
 20
12.88965095197234
 30
0.0
 10
16.00630345661243
 20
12.87654524108051
 30
0.0
 10
16.01526220052887
 20
12.85023699620462
 30
0.0
 10
16.01955024647997
 20
12.83704515481535
 30
0.0
 10
16.03176186309916
 20
12.79734098939774
 30
0.0
 10
16.03891977095188
 20
12.77067771883106
 30
0.0
 10
16.05146425244741
 20
12.71700196814766
 30
0.0
 10
16.0569039928038
 20
12.68999996957873
 30
0.0
 10
16.0715005462633
 20
12.60865435869511
 30
0.0
 10
16.07898854274353
 20
12.55398174765242
 30
0.0
 10
16.09152284205039
 20
12.44415515805472
 30
0.0
 10
16.0965401086653
 20
12.38899545515794
 30
0.0
 10
16.10492082443121
 20
12.27835000764442
 30
0.0
 10
16.10827176297032
 20
12.22281763955872
 30
0.0
 10
16.11358800592795
 20
12.11173848680116
 30
0.0
 10
16.11554978820082
 20
12.05619069909609
 30
0.0
 10
16.11943703856655
 20
11.88952377415666
 30
0.0
 10
16.11942863720078
 20
11.77838183247155
 30
0.0
 10
16.11440046294373
 20
11.61160977563659
 30
0.0
 10
16.11187536608999
 20
11.55603475408005
 30
0.0
 10
16.10465242222891
 20
11.44509278071671
 30
0.0
 10
16.09996624289562
 20
11.38970421928771
 30
0.0
 10
16.08752067281025
 20
11.27916279800493
 30
0.0
 10
16.07977600818305
 20
11.22403188075641
 30
0.0
 10
16.05956580394374
 20
11.1149671619414
 30
0.0
 10
16.0471749737085
 20
11.06094188243112
 30
0.0
 10
16.02218851074935
 20
10.98132382656234
 30
0.0
 10
16.01272615942611
 20
10.95493342530598
 30
0.0
 10
15.99090082530331
 20
10.90365797012292
 30
0.0
 10
15.97854351310643
 20
10.87871014584304
 30
0.0
 10
15.95672749836994
 20
10.8428548251793
 30
0.0
 10
15.9489370481593
 20
10.83123747811086
 30
0.0
 10
15.93231195665011
 20
10.80906130878268
 30
0.0
 10
15.92345505092806
 20
10.79846473857361
 30
0.0
 10
15.90446414209176
 20
10.77842471716909
 30
0.0
 10
15.89433017584863
 20
10.76898123268195
 30
0.0
 10
15.87256127938265
 20
10.75144951673247
 30
0.0
 10
15.86091571333922
 20
10.74338813499235
 30
0.0
 10
15.83687793331309
 20
10.72931280529286
 30
0.0
 10
15.8243881748614
 20
10.72321517757779
 30
0.0
 10
15.7984314758689
 20
10.7129707588906
 30
0.0
 10
15.78486341550586
 20
10.70881431118127
 30
0.0
 10
15.75759310313665
 20
10.70268198924964
 30
0.0
 10
15.74381783420684
 20
10.70066210049111
 30
0.0
 10
15.71601708123284
 20
10.69849076912907
 30
0.0
 10
15.70191747613231
 20
10.69833529293338
 30
0.0
 10
15.65993200465563
 20
10.70004588902001
 30
0.0
 10
15.63238898319339
 20
10.70368590804461
 30
0.0
 10
15.57841539428736
 20
10.7171827101143
 30
0.0
 10
15.5520294908301
 20
10.72733894970994
 30
0.0
 10
15.52587430374196
 20
10.73764579969114
 30
0.0
  0
SPLINE
  5
8A
330
1F
100
AcDbEntity
  8
0
  6
Continuous
 62
     5
370
     0
100
AcDbSpline
210
0.0
220
0.0
230
1.0
 70
     8
 71
     3
 72
   198
 73
   194
 74
     0
 42
0.000000001
 43
0.00000001
 40
0.0
 40
0.0
 40
0.0
 40
0.0
 40
0.0156249999999999
 40
0.0156249999999999
 40
0.0234374999999998
 40
0.0234374999999998
 40
0.0312499999999998
 40
0.0312499999999998
 40
0.0390624999999998
 40
0.0390624999999998
 40
0.0468749999999997
 40
0.0468749999999997
 40
0.0624999999999996
 40
0.0624999999999996
 40
0.0703124999999996
 40
0.0703124999999996
 40
0.0781249999999996
 40
0.0781249999999996
 40
0.0937499999999996
 40
0.0937499999999996
 40
0.1093749999999996
 40
0.1093749999999996
 40
0.1171874999999996
 40
0.1171874999999996
 40
0.1249999999999996
 40
0.1249999999999996
 40
0.1562499999999996
 40
0.1562499999999996
 40
0.1718749999999997
 40
0.1718749999999997
 40
0.1874999999999997
 40
0.1874999999999997
 40
0.2031249999999997
 40
0.2031249999999997
 40
0.2187499999999997
 40
0.2187499999999997
 40
0.2343749999999997
 40
0.2343749999999997
 40
0.2499999999999997
 40
0.2499999999999997
 40
0.2656249999999997
 40
0.2656249999999997
 40
0.2812499999999998
 40
0.2812499999999998
 40
0.2968749999999998
 40
0.2968749999999998
 40
0.3124999999999999
 40
0.3124999999999999
 40
0.328125
 40
0.328125
 40
0.3437500000000001
 40
0.3437500000000001
 40
0.3593750000000001
 40
0.3593750000000001
 40
0.3750000000000002
 40
0.3750000000000002
 40
0.3906250000000002
 40
0.3906250000000002
 40
0.4062500000000003
 40
0.4062500000000003
 40
0.4218750000000003
 40
0.4218750000000003
 40
0.4375000000000004
 40
0.4375000000000004
 40
0.4687500000000006
 40
0.4687500000000006
 40
0.4843750000000006
 40
0.4843750000000006
 40
0.4921875000000007
 40
0.4921875000000007
 40
0.5000000000000007
 40
0.5000000000000007
 40
0.5078125000000008
 40
0.5078125000000008
 40
0.5156250000000008
 40
0.5156250000000008
 40
0.5312500000000009
 40
0.5312500000000009
 40
0.539062500000001
 40
0.539062500000001
 40
0.5429687500000009
 40
0.5429687500000009
 40
0.5468750000000009
 40
0.5468750000000009
 40
0.5507812500000009
 40
0.5507812500000009
 40
0.5546875000000009
 40
0.5546875000000009
 40
0.5566406250000009
 40
0.5566406250000009
 40
0.5585937500000008
 40
0.5585937500000008
 40
0.5605468750000008
 40
0.5605468750000008
 40
0.5625000000000008
 40
0.5625000000000008
 40
0.5644531250000008
 40
0.5644531250000008
 40
0.5664062500000008
 40
0.5664062500000008
 40
0.5683593750000008
 40
0.5683593750000008
 40
0.5703125000000008
 40
0.5703125000000008
 40
0.5712890625000008
 40
0.5712890625000008
 40
0.5722656250000008
 40
0.5722656250000008
 40
0.5742187500000008
 40
0.5742187500000008
 40
0.5761718750000007
 40
0.5761718750000007
 40
0.5781250000000007
 40
0.5781250000000007
 40
0.5820312500000007
 40
0.5820312500000007
 40
0.5859375000000007
 40
0.5859375000000007
 40
0.5937500000000007
 40
0.5937500000000007
 40
0.6015625000000008
 40
0.6015625000000008
 40
0.6093750000000008
 40
0.6093750000000008
 40
0.6250000000000008
 40
0.6250000000000008
 40
0.6406250000000009
 40
0.6406250000000009
 40
0.6562500000000009
 40
0.6562500000000009
 40
0.6718750000000009
 40
0.6718750000000009
 40
0.6875000000000009
 40
0.6875000000000009
 40
0.7031250000000009
 40
0.7031250000000009
 40
0.7187500000000009
 40
0.7187500000000009
 40
0.7265625000000009
 40
0.7265625000000009
 40
0.734375000000001
 40
0.734375000000001
 40
0.750000000000001
 40
0.750000000000001
 40
0.765625000000001
 40
0.765625000000001
 40
0.773437500000001
 40
0.773437500000001
 40
0.7812500000000009
 40
0.7812500000000009
 40
0.7890625000000009
 40
0.7890625000000009
 40
0.7968750000000008
 40
0.7968750000000008
 40
0.8125000000000008
 40
0.8125000000000008
 40
0.8281250000000008
 40
0.8281250000000008
 40
0.8359375000000008
 40
0.8359375000000008
 40
0.8437500000000007
 40
0.8437500000000007
 40
0.8515625000000007
 40
0.8515625000000007
 40
0.8593750000000006
 40
0.8593750000000006
 40
0.8750000000000006
 40
0.8750000000000006
 40
0.8906250000000007
 40
0.8906250000000007
 40
0.9062500000000007
 40
0.9062500000000007
 40
0.9140625000000006
 40
0.9140625000000006
 40
0.9218750000000006
 40
0.9218750000000006
 40
0.9296875000000004
 40
0.9296875000000004
 40
0.9375000000000004
 40
0.9375000000000004
 40
0.9531250000000003
 40
0.9531250000000003
 40
0.9570312500000003
 40
0.9570312500000003
 40
0.9609375000000002
 40
0.9609375000000002
 40
0.9687500000000002
 40
0.9687500000000002
 40
0.9765625000000001
 40
0.9765625000000001
 40
0.9843750000000001
 40
0.9843750000000001
 40
1.0
 40
1.0
 40
1.0
 40
1.0
 10
20.54382501217709
 20
10.49271526838908
 30
0.0
 10
20.44913865597374
 20
10.52246105612803
 30
0.0
 10
20.35590476291258
 20
10.55558132835186
 30
0.0
 10
20.21885433140472
 20
10.61176788018693
 30
0.0
 10
20.17364366411107
 20
10.63159520245222
 30
0.0
 10
20.08427032504587
 20
10.67368463828794
 30
0.0
 10
20.0400968485913
 20
10.69592164951037
 30
0.0
 10
19.95264566147084
 20
10.7424767903451
 30
0.0
 10
19.90937378263281
 20
10.76680846895032
 30
0.0
 10
19.82352642393525
 20
10.81708975881591
 30
0.0
 10
19.78097461753785
 20
10.84299836752555
 30
0.0
 10
19.65488703865345
 20
10.92219768694509
 30
0.0
 10
19.57286022668578
 20
10.97738506946329
 30
0.0
 10
19.45398407462061
 20
11.06506043094149
 30
0.0
 10
19.41502280349424
 20
11.09506612495644
 30
0.0
 10
19.33831643280306
 20
11.15650695567004
 30
0.0
 10
19.30055196230001
 20
11.18791932449058
 30
0.0
 10
19.18846739752568
 20
11.28357726430773
 30
0.0
 10
19.11527302832623
 20
11.3491459705583
 30
0.0
 10
18.97134789514797
 20
11.48317901273
 30
0.0
 10
18.90087509110083
 20
11.55194654513161
 30
0.0
 10
18.79818703142282
 20
11.65864878649909
 30
0.0
 10
18.76444373446528
 20
11.69478749269371
 30
0.0
 10
18.69791272275309
 20
11.76818806075591
 30
0.0
 10
18.66505957994121
 20
11.80547324110781
 30
0.0
 10
18.50342995659256
 20
11.9934094377196
 30
0.0
 10
18.38255728722046
 20
12.14888248383724
 30
0.0
 10
18.21457756297133
 20
12.39019312955766
 30
0.0
 10
18.16075032013614
 20
12.47194643069727
 30
0.0
 10
18.05754707393806
 20
12.63815834280546
 30
0.0
 10
18.00826643922865
 20
12.72267491555235
 30
0.0
 10
17.91402388133222
 20
12.89433282495807
 30
0.0
 10
17.86890776574698
 20
12.98138044879529
 30
0.0
 10
17.78049565843137
 20
13.15658190497301
 30
0.0
 10
17.73713041883104
 20
13.24469365084652
 30
0.0
 10
17.6528859221474
 20
13.42242803702635
 30
0.0
 10
17.61207769205164
 20
13.51209384508606
 30
0.0
 10
17.53313155532228
 20
13.69304839170681
 30
0.0
 10
17.49501226521415
 20
13.78406186681316
 30
0.0
 10
17.42176947987112
 20
13.96717238799486
 30
0.0
 10
17.38674420295828
 20
14.05932179256948
 30
0.0
 10
17.31912661416336
 20
14.24452625754472
 30
0.0
 10
17.28638366834731
 20
14.33752524541728
 30
0.0
 10
17.22235594207424
 20
14.52406601398351
 30
0.0
 10
17.19109639781799
 20
14.61765044668697
 30
0.0
 10
17.13125092946028
 20
14.80566559352338
 30
0.0
 10
17.10276207315843
 20
14.90003216726344
 30
0.0
 10
17.0478387665859
 20
15.0892796768369
 30
0.0
 10
17.02118330066602
 20
15.18410527693326
 30
0.0
 10
16.96822029624314
 20
15.3738435877904
 30
0.0
 10
16.94202095361506
 20
15.46878338757639
 30
0.0
 10
16.89133276811858
 20
15.65909124535229
 30
0.0
 10
16.86696571462915
 20
15.75448979577602
 30
0.0
 10
16.82077622284191
 20
15.94592399249303
 30
0.0
 10
16.79900388525243
 20
16.04197218251169
 30
0.0
 10
16.75635352879659
 20
16.234292473326
 30
0.0
 10
16.73531851078672
 20
16.33052526621124
 30
0.0
 10
16.69356387644178
 20
16.52306981916896
 30
0.0
 10
16.67302562978428
 20
16.6194269888078
 30
0.0
 10
16.63368877682229
 20
16.81257688222626
 30
0.0
 10
16.61483170598725
 20
16.90936412224453
 30
0.0
 10
16.57786411244865
 20
17.1030482434029
 30
0.0
 10
16.55970067747225
 20
17.19994666741463
 30
0.0
 10
16.5063974632935
 20
17.49085079241213
 30
0.0
 10
16.47269073103107
 20
17.68510861910801
 30
0.0
 10
16.42675657650977
 20
17.9773092329695
 30
0.0
 10
16.41234612383101
 20
18.07486522999553
 30
0.0
 10
16.39054772687832
 20
18.22116114993413
 30
0.0
 10
16.38324751349712
 20
18.26992157395249
 30
0.0
 10
16.36831383910036
 20
18.36739467922541
 30
0.0
 10
16.36071138002881
 20
18.41611180197733
 30
0.0
 10
16.34565024726973
 20
18.5135666469121
 30
0.0
 10
16.3382066523035
 20
18.56230652934984
 30
0.0
 10
16.32392587497295
 20
18.65987317200223
 30
0.0
 10
16.31713608156394
 20
18.70870672140146
 30
0.0
 10
16.29781384634266
 20
18.85535738895877
 30
0.0
 10
16.28621259020039
 20
18.95330791354779
 30
0.0
 10
16.26624800967302
 20
19.09986655542486
 30
0.0
 10
16.25891608288036
 20
19.14862229300938
 30
0.0
 10
16.24765849476801
 20
19.22172613590758
 30
0.0
 10
16.24390855502032
 20
19.24609441331315
 30
0.0
 10
16.23694256274285
 20
19.294898955433
 30
0.0
 10
16.23372041371606
 20
19.31933444379522
 30
0.0
 10
16.22864251169741
 20
19.3683794227919
 30
0.0
 10
16.22677031658123
 20
19.39305404577775
 30
0.0
 10
16.22586665221609
 20
19.44245443576148
 30
0.0
 10
16.22682786168762
 20
19.46705421247803
 30
0.0
 10
16.23206966723248
 20
19.50368382990412
 30
0.0
 10
16.23448949146835
 20
19.51591851901424
 30
0.0
 10
16.24070683243562
 20
19.53980357814028
 30
0.0
 10
16.24447564513023
 20
19.55148075475284
 30
0.0
 10
16.25330520853077
 20
19.57431579629412
 30
0.0
 10
16.25836525620423
 20
19.58547394381608
 30
0.0
 10
16.26983070428386
 20
19.60724945641781
 30
0.0
 10
16.27628312899605
 20
19.61793424986262
 30
0.0
 10
16.29037929334157
 20
19.63822469864833
 30
0.0
 10
16.29802816297758
 20
19.64785948760769
 30
0.0
 10
16.3146985597991
 20
19.66596284103897
 30
0.0
 10
16.32379247597591
 20
19.67449439798141
 30
0.0
 10
16.34336627993947
 20
19.68976276799342
 30
0.0
 10
16.3537489182868
 20
19.69647310791765
 30
0.0
 10
16.37611561471408
 20
19.70741036753281
 30
0.0
 10
16.38788676224089
 20
19.71151241797887
 30
0.0
 10
16.40646098872071
 20
19.7140801942309
 30
0.0
 10
16.41269936205855
 20
19.71432115680325
 30
0.0
 10
16.42504940612931
 20
19.71337927032593
 30
0.0
 10
16.43127070279742
 20
19.7121551100814
 30
0.0
 10
16.44895621218373
 20
19.70636149561387
 30
0.0
 10
16.45971895124444
 20
19.69959044014784
 30
0.0
 10
16.47873973253506
 20
19.68379388904529
 30
0.0
 10
16.4873023887885
 20
19.67470550897796
 30
0.0
 10
16.50340544917232
 20
19.65584287206361
 30
0.0
 10
16.51093890368023
 20
19.64604788762636
 30
0.0
 10
16.53286377181892
 20
19.61618876673872
 30
0.0
 10
16.54660215490645
 20
19.5956662320275
 30
0.0
 10
16.57389942043624
 20
19.55449516117302
 30
0.0
 10
16.58741376312911
 20
19.53381536011596
 30
0.0
 10
16.62828553918377
 20
19.47200672333391
 30
0.0
 10
16.65611574172986
 20
19.43120001848991
 30
0.0
 10
16.71206333392627
 20
19.34978030208159
 30
0.0
 10
16.74010444318098
 20
19.30911631969823
 30
0.0
 10
16.79590634927309
 20
19.22759731408756
 30
0.0
 10
16.82364273753686
 20
19.18672468352202
 30
0.0
 10
16.90610576861152
 20
19.06360508110558
 30
0.0
 10
16.96047644943081
 20
18.98112544188841
 30
0.0
 10
17.06988851717953
 20
18.81660973896852
 30
0.0
 10
17.12486503735406
 20
18.73453077524782
 30
0.0
 10
17.23425541900437
 20
18.57000073009653
 30
0.0
 10
17.28859263198536
 20
18.48749895672348
 30
0.0
 10
17.3970282621529
 20
18.32233748094439
 30
0.0
 10
17.45118841581341
 20
18.23971860832627
 30
0.0
 10
17.56010409201673
 20
18.07487461387638
 30
0.0
 10
17.61481223851414
 20
17.99261815961236
 30
0.0
 10
17.72336168496624
 20
17.82753195691673
 30
0.0
 10
17.77694891168806
 20
17.74453378267024
 30
0.0
 10
17.88301593096046
 20
17.57781217024909
 30
0.0
 10
17.93569654090363
 20
17.49421970327847
 30
0.0
 10
18.01625753487245
 20
17.36984198665499
 30
0.0
 10
18.04331502208675
 20
17.32851654695811
 30
0.0
 10
18.0978716679278
 20
17.24615560245819
 30
0.0
 10
18.1253557051848
 20
17.20511017124247
 30
0.0
 10
18.20787333430709
 20
17.08201688641531
 30
0.0
 10
18.2628326637541
 20
16.99992028329067
 30
0.0
 10
18.37119874344299
 20
16.83470788749344
 30
0.0
 10
18.42465949527217
 20
16.75162754412561
 30
0.0
 10
18.50596625773341
 20
16.62773938671437
 30
0.0
 10
18.53331572540614
 20
16.58660561738787
 30
0.0
 10
18.58863829892707
 20
16.50474746558491
 30
0.0
 10
18.61660293526436
 20
16.46401726326974
 30
0.0
 10
18.67296709106786
 20
16.3828434169735
 30
0.0
 10
18.70135774387932
 20
16.34239634800754
 30
0.0
 10
18.75814926616071
 20
16.2615090605756
 30
0.0
 10
18.78651644960242
 20
16.2210462548678
 30
0.0
 10
18.87163216685803
 20
16.09966733699081
 30
0.0
 10
18.9284712284886
 20
16.01881192576493
 30
0.0
 10
19.04326171379324
 20
15.85784696715681
 30
0.0
 10
19.10099591852861
 20
15.77759176957611
 30
0.0
 10
19.18464960946412
 20
15.65523253006988
 30
0.0
 10
19.2119180113148
 20
15.61403296651806
 30
0.0
 10
19.26543030712406
 20
15.53094688376104
 30
0.0
 10
19.29174661766732
 20
15.48910892150951
 30
0.0
 10
19.34428796338995
 20
15.40537179481584
 30
0.0
 10
19.37050232002745
 20
15.36346547017052
 30
0.0
 10
19.42381466387012
 20
15.28024531510918
 30
0.0
 10
19.45090461222336
 20
15.23892609446157
 30
0.0
 10
19.5327552475066
 20
15.11535786546565
 30
0.0
 10
19.5879433907826
 20
15.03339547624021
 30
0.0
 10
19.6954585423538
 20
14.86755224224082
 30
0.0
 10
19.74814500756364
 20
14.7839096992394
 30
0.0
 10
19.8520812281361
 20
14.6156723325235
 30
0.0
 10
19.90306547690688
 20
14.5309802800632
 30
0.0
 10
19.98148849442397
 20
14.40507665547257
 30
0.0
 10
20.00797319576166
 20
14.36330907747647
 30
0.0
 10
20.06227698270483
 20
14.28055156620143
 30
0.0
 10
20.0900209096704
 20
14.23951783240662
 30
0.0
 10
20.14527720252281
 20
14.15731541699574
 30
0.0
 10
20.17278922573793
 20
14.11614653567952
 30
0.0
 10
20.22607558002493
 20
14.03279609090757
 30
0.0
 10
20.25174219864669
 20
13.99055175541546
 30
0.0
 10
20.32452459017135
 20
13.86136091955431
 30
0.0
 10
20.36842786461286
 20
13.7725422579814
 30
0.0
 10
20.42523534884062
 20
13.66264274762983
 30
0.0
 10
20.43668460641444
 20
13.64071399024726
 30
0.0
 10
20.45994694992218
 20
13.59706850526169
 30
0.0
 10
20.47175283533106
 20
13.57534758137855
 30
0.0
 10
20.50754617454508
 20
13.51040374807951
 30
0.0
 10
20.53191175568093
 20
13.4674012015142
 30
0.0
 10
20.58091495107878
 20
13.38155464226976
 30
0.0
 10
20.60555459603131
 20
13.33871181302458
 30
0.0
 10
20.65446523817678
 20
13.25281131613301
 30
0.0
 10
20.678671073775
 20
13.20971567399073
 30
0.0
 10
20.75062406340768
 20
13.08004148410988
 30
0.0
 10
20.79781628681798
 20
12.99313953712372
 30
0.0
 10
20.84512405729939
 20
12.90630492798886
 30
0.0
  0
SPLINE
  5
8B
330
1F
100
AcDbEntity
  8
0
  6
Continuous
 62
     5
370
     0
100
AcDbSpline
210
0.0
220
0.0
230
1.0
 70
     8
 71
     3
 72
    58
 73
    54
 74
     0
 42
0.000000001
 43
0.00000001
 40
0.0
 40
0.0
 40
0.0
 40
0.0
 40
0.0312500000000001
 40
0.0312500000000001
 40
0.0625000000000002
 40
0.0625000000000002
 40
0.0937500000000004
 40
0.0937500000000004
 40
0.1250000000000005
 40
0.1250000000000005
 40
0.1875000000000009
 40
0.1875000000000009
 40
0.2500000000000013
 40
0.2500000000000013
 40
0.3125000000000017
 40
0.3125000000000017
 40
0.3750000000000021
 40
0.3750000000000021
 40
0.5000000000000029
 40
0.5000000000000029
 40
0.562500000000003
 40
0.562500000000003
 40
0.6250000000000032
 40
0.6250000000000032
 40
0.6875000000000033
 40
0.6875000000000033
 40
0.7500000000000034
 40
0.7500000000000034
 40
0.7812500000000036
 40
0.7812500000000036
 40
0.8125000000000037
 40
0.8125000000000037
 40
0.8437500000000038
 40
0.8437500000000038
 40
0.859375000000004
 40
0.859375000000004
 40
0.8750000000000042
 40
0.8750000000000042
 40
0.8828125000000046
 40
0.8828125000000046
 40
0.8906250000000044
 40
0.8906250000000044
 40
0.9062500000000038
 40
0.9062500000000038
 40
0.921875000000003
 40
0.921875000000003
 40
0.9375000000000023
 40
0.9375000000000023
 40
0.9531250000000016
 40
0.9531250000000016
 40
0.9687500000000009
 40
0.9687500000000009
 40
1.0
 40
1.0
 40
1.0
 40
1.0
 10
20.84512405729939
 20
12.90630492798886
 30
0.0
 10
20.859258547354
 20
12.88035515329883
 30
0.0
 10
20.87347983036361
 20
12.85443054140412
 30
0.0
 10
20.89882093289807
 20
12.80168214911846
 30
0.0
 10
20.90991452277142
 20
12.77485076429291
 30
0.0
 10
20.93071684602405
 20
12.72078650052869
 30
0.0
 10
20.94014436271601
 20
12.693472091955
 30
0.0
 10
20.9569199234569
 20
12.6382403993269
 30
0.0
 10
20.96433391758814
 20
12.61034223535455
 30
0.0
 10
20.98437315220519
 20
12.52600912833992
 30
0.0
 10
20.99487839025785
 20
12.46895955952207
 30
0.0
 10
21.01267700089696
 20
12.35392924592524
 30
0.0
 10
21.01995681516197
 20
12.29586021669383
 30
0.0
 10
21.03242619513956
 20
12.17960823077707
 30
0.0
 10
21.03760525742723
 20
12.12141375865532
 30
0.0
 10
21.04642764636205
 20
12.00492519037604
 30
0.0
 10
21.05006303535703
 20
11.94663057929855
 30
0.0
 10
21.05896991418791
 20
11.77161705111776
 30
0.0
 10
21.0623077411287
 20
11.65469683453611
 30
0.0
 10
21.06302591019948
 20
11.47937815395598
 30
0.0
 10
21.0625364909993
 20
11.42094906145015
 30
0.0
 10
21.05978184335748
 20
11.30411638191259
 30
0.0
 10
21.0575223884962
 20
11.24570017946057
 30
0.0
 10
21.05060967770977
 20
11.12895533009599
 30
0.0
 10
21.04597598159764
 20
11.07069514792441
 30
0.0
 10
21.03308906462525
 20
10.9545198532273
 30
0.0
 10
21.024866657647
 20
10.89650423958963
 30
0.0
 10
21.00788903319701
 20
10.8106693824785
 30
0.0
 10
21.00144220925566
 20
10.78224090368173
 30
0.0
 10
20.98626045579547
 20
10.7259159874843
 30
0.0
 10
20.97751462318728
 20
10.6979373582363
 30
0.0
 10
20.95653135391229
 20
10.64317217711893
 30
0.0
 10
20.94440471960434
 20
10.61656461727198
 30
0.0
 10
20.92203993110256
 20
10.57863225461143
 30
0.0
 10
20.91389041361687
 20
10.56637579769541
 30
0.0
 10
20.89617477040001
 20
10.54334875641075
 30
0.0
 10
20.88657322877675
 20
10.5325133997503
 30
0.0
 10
20.87077548362006
 20
10.51753279550264
 30
0.0
 10
20.86527622166783
 20
10.51275203902979
 30
0.0
 10
20.8537544014916
 20
10.50366769582042
 30
0.0
 10
20.84769339098342
 20
10.49934240632438
 30
0.0
 10
20.82908289222526
 20
10.48744306417555
 30
0.0
 10
20.81603130620058
 20
10.48087086098791
 30
0.0
 10
20.78863396755515
 20
10.47045837751975
 30
0.0
 10
20.77419384921332
 20
10.46662919108379
 30
0.0
 10
20.74525146013709
 20
10.46173271223507
 30
0.0
 10
20.73061861871206
 20
10.46060389943327
 30
0.0
 10
20.70110608693257
 20
10.46036115364353
 30
0.0
 10
20.6863922979512
 20
10.46123254383038
 30
0.0
 10
20.65731874760982
 20
10.46433683553595
 30
0.0
 10
20.64290708787623
 20
10.46660817382286
 30
0.0
 10
20.60000633580826
 20
10.47534340344942
 30
0.0
 10
20.57185952400706
 20
10.48390803588462
 30
0.0
 10
20.5438245241022
 20
10.49271529171991
 30
0.0
  0
SPLINE
  5
8C
330
1F
100
AcDbEntity
  8
0
  6
Continuous
 62
     5
370
     0
100
AcDbSpline
210
0.0
220
0.0
230
1.0
 70
     8
 71
     3
 72
   180
 73
   176
 74
     0
 42
0.000000001
 43
0.00000001
 40
0.0000000183993679
 40
0.0000000183993679
 40
0.0000000183993679
 40
0.0000000183993679
 40
0.0156249999999998
 40
0.0156249999999998
 40
0.0234374999999997
 40
0.0234374999999997
 40
0.0312499999999997
 40
0.0312499999999997
 40
0.0390624999999996
 40
0.0390624999999996
 40
0.0468749999999995
 40
0.0468749999999995
 40
0.0624999999999994
 40
0.0624999999999994
 40
0.0703124999999994
 40
0.0703124999999994
 40
0.0781249999999994
 40
0.0781249999999994
 40
0.0859374999999994
 40
0.0859374999999994
 40
0.0937499999999994
 40
0.0937499999999994
 40
0.1093749999999993
 40
0.1093749999999993
 40
0.1171874999999993
 40
0.1171874999999993
 40
0.1249999999999993
 40
0.1249999999999993
 40
0.1406249999999993
 40
0.1406249999999993
 40
0.1562499999999993
 40
0.1562499999999993
 40
0.1718749999999994
 40
0.1718749999999994
 40
0.1796874999999994
 40
0.1796874999999994
 40
0.1874999999999995
 40
0.1874999999999995
 40
0.2031249999999996
 40
0.2031249999999996
 40
0.2187499999999997
 40
0.2187499999999997
 40
0.2343749999999998
 40
0.2343749999999998
 40
0.2499999999999999
 40
0.2499999999999999
 40
0.2656250000000001
 40
0.2656250000000001
 40
0.2812500000000002
 40
0.2812500000000002
 40
0.2968750000000003
 40
0.2968750000000003
 40
0.3125000000000005
 40
0.3125000000000005
 40
0.3281250000000006
 40
0.3281250000000006
 40
0.3437500000000008
 40
0.3437500000000008
 40
0.3593750000000009
 40
0.3593750000000009
 40
0.3750000000000011
 40
0.3750000000000011
 40
0.3906250000000012
 40
0.3906250000000012
 40
0.4062500000000013
 40
0.4062500000000013
 40
0.4218750000000014
 40
0.4218750000000014
 40
0.4375000000000016
 40
0.4375000000000016
 40
0.4687500000000019
 40
0.4687500000000019
 40
0.4843750000000019
 40
0.4843750000000019
 40
0.4921875000000021
 40
0.4921875000000021
 40
0.5000000000000021
 40
0.5000000000000021
 40
0.5078125000000021
 40
0.5078125000000021
 40
0.5156250000000021
 40
0.5156250000000021
 40
0.5312500000000022
 40
0.5312500000000022
 40
0.5390625000000023
 40
0.5390625000000023
 40
0.5468750000000023
 40
0.5468750000000023
 40
0.5546875000000023
 40
0.5546875000000023
 40
0.5585937500000022
 40
0.5585937500000022
 40
0.5625000000000022
 40
0.5625000000000022
 40
0.5664062500000022
 40
0.5664062500000022
 40
0.5703125000000021
 40
0.5703125000000021
 40
0.5722656250000021
 40
0.5722656250000021
 40
0.5732421875000021
 40
0.5732421875000021
 40
0.5742187500000021
 40
0.5742187500000021
 40
0.5751953125000021
 40
0.5751953125000021
 40
0.576171875000002
 40
0.576171875000002
 40
0.577148437500002
 40
0.577148437500002
 40
0.578125000000002
 40
0.578125000000002
 40
0.580078125000002
 40
0.580078125000002
 40
0.582031250000002
 40
0.582031250000002
 40
0.5859375000000019
 40
0.5859375000000019
 40
0.5898437500000019
 40
0.5898437500000019
 40
0.5937500000000018
 40
0.5937500000000018
 40
0.6015625000000018
 40
0.6015625000000018
 40
0.6093750000000017
 40
0.6093750000000017
 40
0.6250000000000016
 40
0.6250000000000016
 40
0.6406250000000014
 40
0.6406250000000014
 40
0.6562500000000013
 40
0.6562500000000013
 40
0.6640625000000014
 40
0.6640625000000014
 40
0.6718750000000014
 40
0.6718750000000014
 40
0.6875000000000013
 40
0.6875000000000013
 40
0.7031250000000013
 40
0.7031250000000013
 40
0.7109375000000013
 40
0.7109375000000013
 40
0.7187500000000013
 40
0.7187500000000013
 40
0.7343750000000013
 40
0.7343750000000013
 40
0.7500000000000012
 40
0.7500000000000012
 40
0.7656250000000011
 40
0.7656250000000011
 40
0.7734375000000011
 40
0.7734375000000011
 40
0.7812500000000011
 40
0.7812500000000011
 40
0.7968750000000011
 40
0.7968750000000011
 40
0.8046875000000011
 40
0.8046875000000011
 40
0.8125000000000011
 40
0.8125000000000011
 40
0.828125000000001
 40
0.828125000000001
 40
0.8437500000000009
 40
0.8437500000000009
 40
0.8593750000000009
 40
0.8593750000000009
 40
0.8750000000000008
 40
0.8750000000000008
 40
0.9062500000000006
 40
0.9062500000000006
 40
0.9375000000000004
 40
0.9375000000000004
 40
0.9687500000000002
 40
0.9687500000000002
 40
1.0
 40
1.0
 40
1.0
 40
1.0
 10
25.37133180174733
 20
10.53897077302442
 30
0.0
 10
25.26977038709814
 20
10.55039101151298
 30
0.0
 10
25.16957581199444
 20
10.56691657940297
 30
0.0
 10
25.02204186101547
 20
10.60200610200639
 30
0.0
 10
24.97333040478144
 20
10.6154451521766
 30
0.0
 10
24.87703558476276
 20
10.64653682943128
 30
0.0
 10
24.82944638290145
 20
10.66416765051075
 30
0.0
 10
24.73522573268109
 20
10.70300663072714
 30
0.0
 10
24.68859258228658
 20
10.72420843252863
 30
0.0
 10
24.59598407146224
 20
10.76906897005573
 30
0.0
 10
24.55012515919642
 20
10.79260353031753
 30
0.0
 10
24.414039251172
 20
10.86468776627327
 30
0.0
 10
24.32514729710278
 20
10.91530277807033
 30
0.0
 10
24.19559328150793
 20
10.99651054168341
 30
0.0
 10
24.15307158108791
 20
11.02450581243783
 30
0.0
 10
24.06932877952989
 20
11.08231298727996
 30
0.0
 10
24.02806944524804
 20
11.11207148859896
 30
0.0
 10
23.94643979781726
 20
11.17283024605557
 30
0.0
 10
23.90606943322706
 20
11.20383043034046
 30
0.0
 10
23.82590435647547
 20
11.26663485086284
 30
0.0
 10
23.78607473714064
 20
11.29839032993412
 30
0.0
 10
23.6673576563576
 20
11.39473475961436
 30
0.0
 10
23.58933826650381
 20
11.46053620342972
 30
0.0
 10
23.47540152080553
 20
11.56355764437858
 30
0.0
 10
23.43790946689644
 20
11.59870624668073
 30
0.0
 10
23.36426561632032
 20
11.67025781243611
 30
0.0
 10
23.32816302693007
 20
11.70657636718266
 30
0.0
 10
23.22174676371513
 20
11.8169592585131
 30
0.0
 10
23.15322789148913
 20
11.89237785507655
 30
0.0
 10
23.02027702162219
 20
12.04629878219216
 30
0.0
 10
22.95595916475032
 20
12.12488723718048
 30
0.0
 10
22.83218357559087
 20
12.28573133367244
 30
0.0
 10
22.77275558700587
 20
12.36800941816215
 30
0.0
 10
22.68789103330572
 20
12.49465406104969
 30
0.0
 10
22.66032312973028
 20
12.53741242699785
 30
0.0
 10
22.60663159904023
 20
12.62401893160827
 30
0.0
 10
22.58049692932851
 20
12.66785873812543
 30
0.0
 10
22.50376686394077
 20
12.80064122487654
 30
0.0
 10
22.45474195411526
 20
12.89092271830066
 30
0.0
 10
22.35920855464111
 20
13.07255363256395
 30
0.0
 10
22.31285859422459
 20
13.16396881288381
 30
0.0
 10
22.22360972941392
 20
13.348260048007
 30
0.0
 10
22.18077949013428
 20
13.44116516959786
 30
0.0
 10
22.09880159380683
 20
13.62853429515514
 30
0.0
 10
22.05967426233919
 20
13.72300690319007
 30
0.0
 10
21.98463133029297
 20
13.91331168446889
 30
0.0
 10
21.94861841129793
 20
14.00910266162859
 30
0.0
 10
21.87811289325406
 20
14.2013281860916
 30
0.0
 10
21.84355777766135
 20
14.29773626937131
 30
0.0
 10
21.77654651394697
 20
14.49144095469111
 30
0.0
 10
21.7442454685168
 20
14.58877916305578
 30
0.0
 10
21.68206801214181
 20
14.78404723445077
 30
0.0
 10
21.65201605646719
 20
14.88197750388742
 30
0.0
 10
21.59270462471504
 20
15.07806447545572
 30
0.0
 10
21.5634471396871
 20
15.17622174648402
 30
0.0
 10
21.50604861624307
 20
15.37285528730791
 30
0.0
 10
21.4778319434966
 20
15.47130994634558
 30
0.0
 10
21.4234270568773
 20
15.66879884957515
 30
0.0
 10
21.39735936159684
 20
15.76786752916412
 30
0.0
 10
21.34829966054911
 20
15.96688369540338
 30
0.0
 10
21.32503550357944
 20
16.06675128514253
 30
0.0
 10
21.27807061565254
 20
16.266370712232
 30
0.0
 10
21.25412086869274
 20
16.36607748946366
 30
0.0
 10
21.20649224207694
 20
16.56555070988652
 30
0.0
 10
21.18302965649746
 20
16.66536479778527
 30
0.0
 10
21.13792522157422
 20
16.8653940407212
 30
0.0
 10
21.11608375099715
 20
16.96556522370184
 30
0.0
 10
21.07293769830051
 20
17.16602585408365
 30
0.0
 10
21.05160108046233
 20
17.26630824473877
 30
0.0
 10
20.98870615665979
 20
17.56740101057967
 30
0.0
 10
20.94821089849611
 20
17.76849620890102
 30
0.0
 10
20.89225550815311
 20
18.07097400846372
 30
0.0
 10
20.87431097054238
 20
18.17191966837943
 30
0.0
 10
20.84734184607071
 20
18.32332930171264
 30
0.0
 10
20.8383112677945
 20
18.37379226088666
 30
0.0
 10
20.82018953273731
 20
18.47470792434375
 30
0.0
 10
20.81110118617572
 20
18.52516110434795
 30
0.0
 10
20.79321583876129
 20
18.62611678413888
 30
0.0
 10
20.78441536218523
 20
18.67661869554599
 30
0.0
 10
20.76739411239931
 20
18.77772065209977
 30
0.0
 10
20.75921593891622
 20
18.82832790864225
 30
0.0
 10
20.73554151962794
 20
18.98029527850071
 30
0.0
 10
20.72078413189019
 20
19.08178046769079
 30
0.0
 10
20.69768728300885
 20
19.23384561021573
 30
0.0
 10
20.68965704176521
 20
19.28447790912438
 30
0.0
 10
20.67371108363829
 20
19.38576189393281
 30
0.0
 10
20.66581366069738
 20
19.43646764700874
 30
0.0
 10
20.65280233271412
 20
19.53809752140323
 30
0.0
 10
20.64764614392578
 20
19.58896699578306
 30
0.0
 10
20.64591366800107
 20
19.66551376212875
 30
0.0
 10
20.64641913058037
 20
19.69107311702773
 30
0.0
 10
20.65006552434861
 20
19.74229833566105
 30
0.0
 10
20.65319987432093
 20
19.76806205620464
 30
0.0
 10
20.66239542128258
 20
19.81866223402764
 30
0.0
 10
20.66843551518733
 20
19.84360472086692
 30
0.0
 10
20.68431842337085
 20
19.89254686612633
 30
0.0
 10
20.69417906283314
 20
19.91669222203538
 30
0.0
 10
20.71315477802349
 20
19.95055794673266
 30
0.0
 10
20.72022461693652
 20
19.96150150023835
 30
0.0
 10
20.73214156287454
 20
19.97668990510684
 30
0.0
 10
20.73634232326741
 20
19.98156101690389
 30
0.0
 10
20.74533029462919
 20
19.99081114581478
 30
0.0
 10
20.75015311183411
 20
19.99522056340064
 30
0.0
 10
20.76041551509616
 20
20.00321002145883
 30
0.0
 10
20.76582441638254
 20
20.00677699978611
 30
0.0
 10
20.7773868264172
 20
20.01276401096344
 30
0.0
 10
20.78348977413937
 20
20.01513462224095
 30
0.0
 10
20.79599686993923
 20
20.01815648209387
 30
0.0
 10
20.80258743282812
 20
20.01881550206934
 30
0.0
 10
20.81554668277155
 20
20.01819147824328
 30
0.0
 10
20.82191907952849
 20
20.01695046440758
 30
0.0
 10
20.84062448072594
 20
20.01100225932015
 30
0.0
 10
20.85186486329209
 20
20.00442915358306
 30
0.0
 10
20.87287839988343
 20
19.98918078634153
 30
0.0
 10
20.88244648430597
 20
19.9806181618339
 30
0.0
 10
20.90983216488238
 20
19.95361205694427
 30
0.0
 10
20.92637323678963
 20
19.93382544989424
 30
0.0
 10
20.95822431131814
 20
19.89334373189311
 30
0.0
 10
20.97343548511869
 20
19.87260501187851
 30
0.0
 10
21.00332331749794
 20
19.83075505239086
 30
0.0
 10
21.0179801967644
 20
19.80963002813106
 30
0.0
 10
21.06165320730624
 20
19.74604753011747
 30
0.0
 10
21.09042183574649
 20
19.70341756432172
 30
0.0
 10
21.14823548855567
 20
19.61835026122385
 30
0.0
 10
21.1771858950819
 20
19.57584698194983
 30
0.0
 10
21.26428401238307
 20
19.44850921444879
 30
0.0
 10
21.32273766245548
 20
19.36388098605721
 30
0.0
 10
21.44057622480743
 20
19.19525402555146
 30
0.0
 10
21.49977244507901
 20
19.1111279889432
 30
0.0
 10
21.61682678249131
 20
18.94197023309803
 30
0.0
 10
21.67449075784581
 20
18.85680711080284
 30
0.0
 10
21.76069015023866
 20
18.72886169628913
 30
0.0
 10
21.7893821444413
 20
18.68618538186369
 30
0.0
 10
21.84688896469273
 20
18.60091589060241
 30
0.0
 10
21.8757198181865
 20
18.55833356179368
 30
0.0
 10
21.96217304659161
 20
18.43055995381787
 30
0.0
 10
22.01973640159924
 20
18.34532872757948
 30
0.0
 10
22.13296702334999
 20
18.17358292543896
 30
0.0
 10
22.18862725061944
 20
18.0870635849342
 30
0.0
 10
22.27313026099242
 20
17.95796999006594
 30
0.0
 10
22.30147537604201
 20
17.91506060406916
 30
0.0
 10
22.35888462397068
 20
17.82971831259796
 30
0.0
 10
22.38789938537184
 20
17.78725232013816
 30
0.0
 10
22.47532907073952
 20
17.66010928234703
 30
0.0
 10
22.53405719893699
 20
17.57563941895091
 30
0.0
 10
22.64994174727532
 20
17.40566002065196
 30
0.0
 10
22.70726384887381
 20
17.32026008262399
 30
0.0
 10
22.821471929427
 20
17.14917171515031
 30
0.0
 10
22.87824682244559
 20
17.06340980330273
 30
0.0
 10
22.96436156560747
 20
16.93539694243189
 30
0.0
 10
22.99323379059904
 20
16.89283666334967
 30
0.0
 10
23.05157643733384
 20
16.80811180724524
 30
0.0
 10
23.08108356275548
 20
16.76597150939478
 30
0.0
 10
23.1704103389738
 20
16.64008338105915
 30
0.0
 10
23.23096405507703
 20
16.55682112852923
 30
0.0
 10
23.32188177053121
 20
16.43198539296116
 30
0.0
 10
23.35220490698364
 20
16.39038487946416
 30
0.0
 10
23.4126437434862
 20
16.30704663505477
 30
0.0
 10
23.44276059626475
 20
16.26530966666275
 30
0.0
 10
23.53288280929876
 20
16.13994771301219
 30
0.0
 10
23.59276130838329
 20
16.05623881016928
 30
0.0
 10
23.71193739908053
 20
15.88843673913313
 30
0.0
 10
23.77115052217268
 20
15.80428769573299
 30
0.0
 10
23.88809266004716
 20
15.63500788391273
 30
0.0
 10
23.94584528986265
 20
15.5498927366379
 30
0.0
 10
24.06050836131749
 20
15.37910534177412
 30
0.0
 10
24.11746933785115
 20
15.29346652258929
 30
0.0
 10
24.2874798635604
 20
15.03597297728162
 30
0.0
 10
24.39955898586966
 20
14.86347632204501
 30
0.0
 10
24.62157895548802
 20
14.51706856085398
 30
0.0
 10
24.73153120830903
 20
14.3431649995477
 30
0.0
 10
24.94888709147888
 20
13.99367198485748
 30
0.0
 10
25.05640746714617
 20
13.81815975750767
 30
0.0
 10
25.26944453861521
 20
13.46580988562651
 30
0.0
 10
25.37489168714621
 20
13.28892623616615
 30
0.0
 10
25.47926192029669
 20
13.1113302163462
 30
0.0
  0
SPLINE
  5
8D
330
1F
100
AcDbEntity
  8
0
  6
Continuous
 62
     5
370
     0
100
AcDbSpline
210
0.0
220
0.0
230
1.0
 70
     8
 71
     3
 72
    58
 73
    54
 74
     0
 42
0.000000001
 43
0.00000001
 40
0.0
 40
0.0
 40
0.0
 40
0.0
 40
0.0312499999999998
 40
0.0312499999999998
 40
0.0624999999999996
 40
0.0624999999999996
 40
0.0937499999999993
 40
0.0937499999999993
 40
0.1249999999999991
 40
0.1249999999999991
 40
0.187499999999999
 40
0.187499999999999
 40
0.2499999999999989
 40
0.2499999999999989
 40
0.3124999999999989
 40
0.3124999999999989
 40
0.3749999999999988
 40
0.3749999999999988
 40
0.4999999999999986
 40
0.4999999999999986
 40
0.6249999999999983
 40
0.6249999999999983
 40
0.6874999999999982
 40
0.6874999999999982
 40
0.7499999999999981
 40
0.7499999999999981
 40
0.7812499999999981
 40
0.7812499999999981
 40
0.8124999999999981
 40
0.8124999999999981
 40
0.8437499999999981
 40
0.8437499999999981
 40
0.8593749999999978
 40
0.8593749999999978
 40
0.8749999999999974
 40
0.8749999999999974
 40
0.8906249999999971
 40
0.8906249999999971
 40
0.8984374999999972
 40
0.8984374999999972
 40
0.9062499999999974
 40
0.9062499999999974
 40
0.9218749999999979
 40
0.9218749999999979
 40
0.9374999999999983
 40
0.9374999999999983
 40
0.9531249999999988
 40
0.9531249999999988
 40
0.9687499999999992
 40
0.9687499999999992
 40
0.9843749999999997
 40
0.9843749999999997
 40
1.0
 40
1.0
 40
1.0
 40
1.0
 10
25.47926192029669
 20
13.1113302163462
 30
0.0
 10
25.49471841282673
 20
13.08502417211362
 30
0.0
 10
25.51015956023625
 20
13.0587126207306
 30
0.0
 10
25.53982069085162
 20
13.00565125910622
 30
0.0
 10
25.55404049057355
 20
12.97890138301506
 30
0.0
 10
25.58072415229547
 20
12.92477144919214
 30
0.0
 10
25.59316253376267
 20
12.89738224685135
 30
0.0
 10
25.61598215968904
 20
12.84186556429215
 30
0.0
 10
25.62637809041179
 20
12.81374335476958
 30
0.0
 10
25.6548051867011
 20
12.72838595082505
 30
0.0
 10
25.67008022181365
 20
12.67016161949382
 30
0.0
 10
25.69615964994673
 20
12.55210850552719
 30
0.0
 10
25.70699295181106
 20
12.49222598208071
 30
0.0
 10
25.72592248506058
 20
12.37175721663481
 30
0.0
 10
25.73397274744624
 20
12.31138427848533
 30
0.0
 10
25.74820472423351
 20
12.1904553716547
 30
0.0
 10
25.7543746492027
 20
12.12989824815916
 30
0.0
 10
25.77073599329838
 20
11.94801643168073
 30
0.0
 10
25.77885502520997
 20
11.82645290996741
 30
0.0
 10
25.79031981948234
 20
11.58301643040641
 30
0.0
 10
25.79366478847466
 20
11.4612446485034
 30
0.0
 10
25.79343637887959
 20
11.27846932827818
 30
0.0
 10
25.79246396070796
 20
11.21751805290916
 30
0.0
 10
25.78798128027117
 20
11.09576320021431
 30
0.0
 10
25.78450099279487
 20
11.03489789864064
 30
0.0
 10
25.77615254018268
 20
10.94387449749934
 30
0.0
 10
25.77284168083963
 20
10.91359446898925
 30
0.0
 10
25.76472204180966
 20
10.85320775189544
 30
0.0
 10
25.75991665239571
 20
10.82307025545275
 30
0.0
 10
25.74805535228871
 20
10.76336395604319
 30
0.0
 10
25.74103191225414
 20
10.73376348449463
 30
0.0
 10
25.72754107363045
 20
10.69004619797987
 30
0.0
 10
25.72254158210462
 20
10.67560277387507
 30
0.0
 10
25.71122800033832
 20
10.64738399019022
 30
0.0
 10
25.70491210130093
 20
10.63357241853164
 30
0.0
 10
25.69028401900862
 20
10.6068513027935
 30
0.0
 10
25.68191830300718
 20
10.59388887503784
 30
0.0
 10
25.66749829028054
 20
10.57621804990829
 30
0.0
 10
25.66236594820679
 20
10.57060183234973
 30
0.0
 10
25.65129365064704
 20
10.56004901681268
 30
0.0
 10
25.64533645373199
 20
10.55512004107663
 30
0.0
 10
25.62672214365011
 20
10.54204239006614
 30
0.0
 10
25.61307074058838
 20
10.53540914892657
 30
0.0
 10
25.58372414920019
 20
10.52627834260006
 30
0.0
 10
25.5687408576785
 20
10.52392157117071
 30
0.0
 10
25.53840329680745
 20
10.52185113937923
 30
0.0
 10
25.5230286280496
 20
10.52214968618312
 30
0.0
 10
25.49261333747276
 20
10.5244891589324
 30
0.0
 10
25.47748400931146
 20
10.52657860411264
 30
0.0
 10
25.44720810603193
 20
10.53056167753217
 30
0.0
 10
25.43204632344512
 20
10.53235632521014
 30
0.0
 10
25.40169039202662
 20
10.53567576495223
 30
0.0
 10
25.38650471216381
 20
10.53726460121222
 30
0.0
 10
25.37133180174733
 20
10.53897077302442
 30
0.0
  0
SPLINE
  5
8E
330
1F
100
AcDbEntity
  8
0
  6
Continuous
 62
     5
370
     0
100
AcDbSpline
210
0.0
220
0.0
230
1.0
 70
     8
 71
     3
 72
   192
 73
   188
 74
     0
 42
0.000000001
 43
0.00000001
 40
0.0
 40
0.0
 40
0.0
 40
0.0
 40
0.0156249999999999
 40
0.0156249999999999
 40
0.0234374999999998
 40
0.0234374999999998
 40
0.0312499999999997
 40
0.0312499999999997
 40
0.0351562499999997
 40
0.0351562499999997
 40
0.0390624999999997
 40
0.0390624999999997
 40
0.0468749999999997
 40
0.0468749999999997
 40
0.0624999999999998
 40
0.0624999999999998
 40
0.0703124999999998
 40
0.0703124999999998
 40
0.0781249999999999
 40
0.0781249999999999
 40
0.0859374999999999
 40
0.0859374999999999
 40
0.0937499999999999
 40
0.0937499999999999
 40
0.1015625
 40
0.1015625
 40
0.109375
 40
0.109375
 40
0.1250000000000002
 40
0.1250000000000002
 40
0.1406250000000004
 40
0.1406250000000004
 40
0.1562500000000006
 40
0.1562500000000006
 40
0.1718750000000008
 40
0.1718750000000008
 40
0.1796875000000008
 40
0.1796875000000008
 40
0.1875000000000009
 40
0.1875000000000009
 40
0.2031250000000011
 40
0.2031250000000011
 40
0.2187500000000014
 40
0.2187500000000014
 40
0.2343750000000016
 40
0.2343750000000016
 40
0.2500000000000019
 40
0.2500000000000019
 40
0.2656250000000021
 40
0.2656250000000021
 40
0.2812500000000024
 40
0.2812500000000024
 40
0.2968750000000026
 40
0.2968750000000026
 40
0.3125000000000029
 40
0.3125000000000029
 40
0.3281250000000031
 40
0.3281250000000031
 40
0.3437500000000034
 40
0.3437500000000034
 40
0.3593750000000036
 40
0.3593750000000036
 40
0.3750000000000038
 40
0.3750000000000038
 40
0.3906250000000041
 40
0.3906250000000041
 40
0.4062500000000043
 40
0.4062500000000043
 40
0.4140625000000045
 40
0.4140625000000045
 40
0.4218750000000047
 40
0.4218750000000047
 40
0.4375000000000049
 40
0.4375000000000049
 40
0.4531250000000053
 40
0.4531250000000053
 40
0.4687500000000056
 40
0.4687500000000056
 40
0.4843750000000059
 40
0.4843750000000059
 40
0.5000000000000061
 40
0.5000000000000061
 40
0.5156250000000064
 40
0.5156250000000064
 40
0.5312500000000067
 40
0.5312500000000067
 40
0.5390625000000069
 40
0.5390625000000069
 40
0.546875000000007
 40
0.546875000000007
 40
0.5546875000000072
 40
0.5546875000000072
 40
0.5625000000000073
 40
0.5625000000000073
 40
0.5664062500000074
 40
0.5664062500000074
 40
0.5703125000000074
 40
0.5703125000000074
 40
0.5742187500000075
 40
0.5742187500000075
 40
0.5761718750000075
 40
0.5761718750000075
 40
0.5781250000000075
 40
0.5781250000000075
 40
0.5800781250000074
 40
0.5800781250000074
 40
0.5810546875000074
 40
0.5810546875000074
 40
0.5820312500000074
 40
0.5820312500000074
 40
0.5830078125000074
 40
0.5830078125000074
 40
0.5839843750000074
 40
0.5839843750000074
 40
0.5849609375000074
 40
0.5849609375000074
 40
0.5859375000000074
 40
0.5859375000000074
 40
0.5878906250000074
 40
0.5878906250000074
 40
0.5898437500000074
 40
0.5898437500000074
 40
0.5937500000000073
 40
0.5937500000000073
 40
0.5976562500000073
 40
0.5976562500000073
 40
0.6015625000000073
 40
0.6015625000000073
 40
0.6093750000000071
 40
0.6093750000000071
 40
0.6250000000000068
 40
0.6250000000000068
 40
0.6406250000000063
 40
0.6406250000000063
 40
0.656250000000006
 40
0.656250000000006
 40
0.6718750000000057
 40
0.6718750000000057
 40
0.6875000000000053
 40
0.6875000000000053
 40
0.7031250000000049
 40
0.7031250000000049
 40
0.7109375000000048
 40
0.7109375000000048
 40
0.7187500000000046
 40
0.7187500000000046
 40
0.7343750000000043
 40
0.7343750000000043
 40
0.750000000000004
 40
0.750000000000004
 40
0.7656250000000038
 40
0.7656250000000038
 40
0.7734375000000037
 40
0.7734375000000037
 40
0.7812500000000034
 40
0.7812500000000034
 40
0.7968750000000032
 40
0.7968750000000032
 40
0.804687500000003
 40
0.804687500000003
 40
0.8125000000000028
 40
0.8125000000000028
 40
0.8281250000000026
 40
0.8281250000000026
 40
0.8437500000000023
 40
0.8437500000000023
 40
0.8593750000000021
 40
0.8593750000000021
 40
0.8750000000000018
 40
0.8750000000000018
 40
0.8906250000000016
 40
0.8906250000000016
 40
0.9062500000000013
 40
0.9062500000000013
 40
0.921875000000001
 40
0.921875000000001
 40
0.9375000000000008
 40
0.9375000000000008
 40
0.9531250000000006
 40
0.9531250000000006
 40
0.9687500000000003
 40
0.9687500000000003
 40
0.9765625000000002
 40
0.9765625000000002
 40
0.9843750000000001
 40
0.9843750000000001
 40
1.0
 40
1.0
 40
1.0
 40
1.0
 10
30.40763001763752
 20
10.14594737785784
 30
0.0
 10
30.30330439251442
 20
10.14996817657948
 30
0.0
 10
30.20004368813342
 20
10.15999943683763
 30
0.0
 10
30.04733101195015
 20
10.18734120609867
 30
0.0
 10
29.99679813442457
 20
10.1985510336033
 30
0.0
 10
29.89665168021484
 20
10.22615926473035
 30
0.0
 10
29.84703416426246
 20
10.24253543495091
 30
0.0
 10
29.7732066790054
 20
10.27047928101718
 30
0.0
 10
29.7486422660211
 20
10.28037243195727
 30
0.0
 10
29.70005076495927
 20
10.30094358059151
 30
0.0
 10
29.67599985148396
 20
10.31162746649164
 30
0.0
 10
29.60440376071578
 20
10.34458470609267
 30
0.0
 10
29.55736913956584
 20
10.36768865475746
 30
0.0
 10
29.41745019172356
 20
10.43892817305526
 30
0.0
 10
29.32592003885221
 20
10.48926677162334
 30
0.0
 10
29.19153793718207
 20
10.56951387235743
 30
0.0
 10
29.1472675954883
 20
10.59711487120366
 30
0.0
 10
29.05974820090877
 20
10.65397834599509
 30
0.0
 10
29.01648041842732
 20
10.68321035182102
 30
0.0
 10
28.93073633132222
 20
10.74296197411167
 30
0.0
 10
28.88825685486664
 20
10.77347643050472
 30
0.0
 10
28.80389008527614
 20
10.83546873289878
 30
0.0
 10
28.76198068220039
 20
10.86691060948899
 30
0.0
 10
28.67882072685293
 20
10.93086620983951
 30
0.0
 10
28.63751805098987
 20
10.96345054197947
 30
0.0
 10
28.55619739006158
 20
11.02983067357735
 30
0.0
 10
28.51621803512213
 20
11.06363134915743
 30
0.0
 10
28.39859853772925
 20
11.16711236390023
 30
0.0
 10
28.32337288840347
 20
11.23895770469193
 30
0.0
 10
28.17765314704284
 20
11.38689102797775
 30
0.0
 10
28.1070129012226
 20
11.46284795887453
 30
0.0
 10
27.97015459534822
 20
11.61872705845148
 30
0.0
 10
27.90406727050008
 20
11.69876645336549
 30
0.0
 10
27.77722268891081
 20
11.86362455111304
 30
0.0
 10
27.71647985183718
 20
11.94845618361827
 30
0.0
 10
27.62965911963519
 20
12.07955350258718
 30
0.0
 10
27.60140684731553
 20
12.12395552494347
 30
0.0
 10
27.54657027153255
 20
12.21341960370389
 30
0.0
 10
27.51993923418282
 20
12.25852893810472
 30
0.0
 10
27.44189733260788
 20
12.39474414615249
 30
0.0
 10
27.39228984157194
 20
12.48671429830881
 30
0.0
 10
27.29611994187063
 20
12.67211397845683
 30
0.0
 10
27.24960793031433
 20
12.76556765959574
 30
0.0
 10
27.16036465599145
 20
12.95428697069706
 30
0.0
 10
27.11780809775188
 20
13.04963632895847
 30
0.0
 10
27.03658913769283
 20
13.24220134566124
 30
0.0
 10
26.99775675150862
 20
13.33933553797272
 30
0.0
 10
26.92118048751136
 20
13.53412559742146
 30
0.0
 10
26.88340704842766
 20
13.63181460021538
 30
0.0
 10
26.80982800406229
 20
13.82782449048393
 30
0.0
 10
26.77422287284781
 20
13.92621513158887
 30
0.0
 10
26.7059128834206
 20
14.12394088537911
 30
0.0
 10
26.67320744326383
 20
14.22327580855536
 30
0.0
 10
26.60957191141102
 20
14.42252379571261
 30
0.0
 10
26.57849774492813
 20
14.52238994185459
 30
0.0
 10
26.51659407174799
 20
14.72220190740201
 30
0.0
 10
26.48582506118697
 20
14.82216742732533
 30
0.0
 10
26.4255271593453
 20
15.02250231102319
 30
0.0
 10
26.39596381744193
 20
15.12286819124657
 30
0.0
 10
26.33850463639481
 20
15.32411010307661
 30
0.0
 10
26.31067199765067
 20
15.42496081029999
 30
0.0
 10
26.25718786652449
 20
15.62722091836006
 30
0.0
 10
26.23137449833217
 20
15.7285888552293
 30
0.0
 10
26.17965191445195
 20
15.93130017794103
 30
0.0
 10
26.15357259469936
 20
16.03259999217527
 30
0.0
 10
26.10135743825722
 20
16.23518514401216
 30
0.0
 10
26.0752245875096
 20
16.33647124645421
 30
0.0
 10
26.03728353408577
 20
16.48872268980766
 30
0.0
 10
26.02482815691451
 20
16.53952225905712
 30
0.0
 10
26.00041576478326
 20
16.64124905143068
 30
0.0
 10
25.98849147934767
 20
16.69218465811744
 30
0.0
 10
25.95322070445489
 20
16.84512008471306
 30
0.0
 10
25.93028900507344
 20
16.9472179109273
 30
0.0
 10
25.88359830982885
 20
17.15122180194485
 30
0.0
 10
25.85984329129242
 20
17.25313439542974
 30
0.0
 10
25.81310738471587
 20
17.45712842554673
 30
0.0
 10
25.79028789286066
 20
17.55924506378935
 30
0.0
 10
25.74609851306082
 20
17.76379450878585
 30
0.0
 10
25.72459712557222
 20
17.86619863459165
 30
0.0
 10
25.68175117899
 20
18.07104109154722
 30
0.0
 10
25.66028088220089
 20
18.17345199844677
 30
0.0
 10
25.61797584000937
 20
18.37841243034369
 30
0.0
 10
25.59724443895046
 20
18.48100175695149
 30
0.0
 10
25.55895003387417
 20
18.68673167600743
 30
0.0
 10
25.54130660325338
 20
18.78986075333776
 30
0.0
 10
25.51527595742538
 20
18.94463068357361
 30
0.0
 10
25.50653984351587
 20
18.99621025700114
 30
0.0
 10
25.48879162976212
 20
19.09932093054896
 30
0.0
 10
25.47976367326713
 20
19.15084924565657
 30
0.0
 10
25.46248169179559
 20
19.25404180678607
 30
0.0
 10
25.45422489785702
 20
19.3057420875004
 30
0.0
 10
25.4409726181981
 20
19.40923400351149
 30
0.0
 10
25.43608334478233
 20
19.46105383208079
 30
0.0
 10
25.43386814577077
 20
19.53900127853772
 30
0.0
 10
25.43395518540657
 20
19.56501886740084
 30
0.0
 10
25.43622982758907
 20
19.61714338404555
 30
0.0
 10
25.43840885387742
 20
19.64324994707063
 30
0.0
 10
25.44573204988611
 20
19.69558918346263
 30
0.0
 10
25.4508204836419
 20
19.72164413749877
 30
0.0
 10
25.46183892578071
 20
19.75983480249016
 30
0.0
 10
25.46608045769737
 20
19.77237775983327
 30
0.0
 10
25.47605656683874
 20
19.79665291937525
 30
0.0
 10
25.48179741078363
 20
19.80842149163198
 30
0.0
 10
25.49554288900513
 20
19.83084895570996
 30
0.0
 10
25.50368402595348
 20
19.84168629199956
 30
0.0
 10
25.51817635224288
 20
19.85546034871351
 30
0.0
 10
25.52346225036901
 20
19.85969017482756
 30
0.0
 10
25.53471375208653
 20
19.86683915367018
 30
0.0
 10
25.54065394741585
 20
19.86976163374201
 30
0.0
 10
25.55328991098051
 20
19.8740398924679
 30
0.0
 10
25.55996468368713
 20
19.87534544959747
 30
0.0
 10
25.57321699259866
 20
19.87619812708486
 30
0.0
 10
25.57998157392619
 20
19.87577154962491
 30
0.0
 10
25.59315217931202
 20
19.87353468698617
 30
0.0
 10
25.59954961384068
 20
19.87175397419083
 30
0.0
 10
25.61206662497251
 20
19.86721303108819
 30
0.0
 10
25.61821109046654
 20
19.86443314619352
 30
0.0
 10
25.6359131447558
 20
19.85519147710913
 30
0.0
 10
25.64691182175034
 20
19.84781360757122
 30
0.0
 10
25.66801521669184
 20
19.831702765859
 30
0.0
 10
25.6781196477378
 20
19.82292968294638
 30
0.0
 10
25.70706699130271
 20
19.79572972953626
 30
0.0
 10
25.72480605415644
 20
19.77627645565353
 30
0.0
 10
25.75887321135458
 20
19.73617539867475
 30
0.0
 10
25.77518248955722
 20
19.71551168605743
 30
0.0
 10
25.80715167447061
 20
19.67363451061691
 30
0.0
 10
25.82280022334747
 20
19.65241057693687
 30
0.0
 10
25.86928711216963
 20
19.58835559771315
 30
0.0
 10
25.89968370056899
 20
19.54523604011592
 30
0.0
 10
25.99060558798168
 20
19.41568986704377
 30
0.0
 10
26.05070149056365
 20
19.32896269677963
 30
0.0
 10
26.17179392301243
 20
19.15613874771184
 30
0.0
 10
26.23263113465892
 20
19.06993045458115
 30
0.0
 10
26.35346219013245
 20
18.89692355545637
 30
0.0
 10
26.41330862273026
 20
18.81002500166697
 30
0.0
 10
26.5321416374933
 20
18.63560775168057
 30
0.0
 10
26.59121560720161
 20
18.54815106715703
 30
0.0
 10
26.70928012112923
 20
18.37317728289323
 30
0.0
 10
26.76817658550141
 20
18.28559205224644
 30
0.0
 10
26.88553101803029
 20
18.11010403999549
 30
0.0
 10
26.94388259928627
 20
18.02212421494204
 30
0.0
 10
27.03273295189012
 20
17.89111255584872
 30
0.0
 10
27.06256283171838
 20
17.84759632277967
 30
0.0
 10
27.12282902302831
 20
17.76100302337658
 30
0.0
 10
27.15326335319479
 20
17.71792452220974
 30
0.0
 10
27.24491185912476
 20
17.58893923467536
 30
0.0
 10
27.30634757454137
 20
17.50319288328128
 30
0.0
 10
27.42840562668276
 20
17.3311111464926
 30
0.0
 10
27.48922540770605
 20
17.24491874665454
 30
0.0
 10
27.61152485427578
 20
17.07301182330354
 30
0.0
 10
27.67282508298833
 20
16.98716735491157
 30
0.0
 10
27.76547431083399
 20
16.85890677192102
 30
0.0
 10
27.79648999636323
 20
16.81624927769504
 30
0.0
 10
27.85902999708453
 20
16.73130262956047
 30
0.0
 10
27.89058118539423
 20
16.68903293667275
 30
0.0
 10
27.98601911349944
 20
16.56279187950442
 30
0.0
 10
28.05072044388378
 20
16.47941042685726
 30
0.0
 10
28.14797876654206
 20
16.35448766619319
 30
0.0
 10
28.18042843881311
 20
16.31286863898905
 30
0.0
 10
28.24512376535726
 20
16.22948283847122
 30
0.0
 10
28.27737642835649
 20
16.18772114074869
 30
0.0
 10
28.37408709126782
 20
16.06240177489295
 30
0.0
 10
28.43858609308199
 20
15.97887379958923
 30
0.0
 10
28.56847414636265
 20
15.81246240669299
 30
0.0
 10
28.6337073680658
 20
15.729466140029
 30
0.0
 10
28.76279734367413
 20
15.56247679385025
 30
0.0
 10
28.82645470306018
 20
15.478333254131
 30
0.0
 10
28.95265800816947
 20
15.30929351607782
 30
0.0
 10
29.01537706428978
 20
15.22451109149681
 30
0.0
 10
29.14070806784551
 20
15.05487273934821
 30
0.0
 10
29.20321349627751
 20
14.96994371346267
 30
0.0
 10
29.32812700329303
 20
14.80001885567625
 30
0.0
 10
29.3904933479605
 20
14.71499438401092
 30
0.0
 10
29.51355800388987
 20
14.54380075819719
 30
0.0
 10
29.57407470814639
 20
14.45750697683452
 30
0.0
 10
29.69387571314054
 20
14.28407368121385
 30
0.0
 10
29.75319065952841
 20
14.19695519743397
 30
0.0
 10
29.87171691625491
 20
14.02264710997272
 30
0.0
 10
29.93088388350861
 20
13.9354270759948
 30
0.0
 10
30.04932934811238
 20
13.76106354520348
 30
0.0
 10
30.10862513787577
 20
13.67393191525213
 30
0.0
 10
30.19553875689372
 20
13.54184134441157
 30
0.0
 10
30.22418592213769
 20
13.49758878198684
 30
0.0
 10
30.28054952492686
 20
13.40844494829037
 30
0.0
 10
30.3082586767648
 20
13.36354867722631
 30
0.0
 10
30.39018231297127
 20
13.22803374695974
 30
0.0
 10
30.44317635016061
 20
13.13657755986296
 30
0.0
 10
30.49488336476394
 20
13.04423815771599
 30
0.0
  0
SPLINE
  5
8F
330
1F
100
AcDbEntity
  8
0
  6
Continuous
 62
     5
370
     0
100
AcDbSpline
210
0.0
220
0.0
230
1.0
 70
     8
 71
     3
 72
    60
 73
    56
 74
     0
 42
0.000000001
 43
0.00000001
 40
0.0
 40
0.0
 40
0.0
 40
0.0
 40
0.0312500000000002
 40
0.0312500000000002
 40
0.0625000000000003
 40
0.0625000000000003
 40
0.0937500000000005
 40
0.0937500000000005
 40
0.1250000000000006
 40
0.1250000000000006
 40
0.1875000000000009
 40
0.1875000000000009
 40
0.2500000000000013
 40
0.2500000000000013
 40
0.3125000000000016
 40
0.3125000000000016
 40
0.3750000000000019
 40
0.3750000000000019
 40
0.5000000000000026
 40
0.5000000000000026
 40
0.6250000000000032
 40
0.6250000000000032
 40
0.6875000000000033
 40
0.6875000000000033
 40
0.7500000000000033
 40
0.7500000000000033
 40
0.7812500000000037
 40
0.7812500000000037
 40
0.8125000000000039
 40
0.8125000000000039
 40
0.8437500000000042
 40
0.8437500000000042
 40
0.8750000000000044
 40
0.8750000000000044
 40
0.8906250000000051
 40
0.8906250000000051
 40
0.9062500000000058
 40
0.9062500000000058
 40
0.9140625000000054
 40
0.9140625000000054
 40
0.9218750000000051
 40
0.9218750000000051
 40
0.9296875000000049
 40
0.9296875000000049
 40
0.9375000000000046
 40
0.9375000000000046
 40
0.9531250000000033
 40
0.9531250000000033
 40
0.9687500000000021
 40
0.9687500000000021
 40
0.9765625000000017
 40
0.9765625000000017
 40
0.9843750000000012
 40
0.9843750000000012
 40
1.0
 40
1.0
 40
1.0
 40
1.0
 10
30.49488336476394
 20
13.04423815771599
 30
0.0
 10
30.51131491160951
 20
13.01488607164004
 30
0.0
 10
30.52760102802064
 20
12.98548659478835
 30
0.0
 10
30.55880710622925
 20
12.92624245829256
 30
0.0
 10
30.57371796987653
 20
12.89639483387431
 30
0.0
 10
30.60158886154406
 20
12.83606387481636
 30
0.0
 10
30.61453464256842
 20
12.80557589757083
 30
0.0
 10
30.63823998619589
 20
12.74388752970292
 30
0.0
 10
30.64901172661577
 20
12.71269110741212
 30
0.0
 10
30.6784009027525
 20
12.61814834309113
 30
0.0
 10
30.6941009444027
 20
12.55385132269399
 30
0.0
 10
30.72068347808237
 20
12.42368740820369
 30
0.0
 10
30.73159348392369
 20
12.35782947991532
 30
0.0
 10
30.75053735865358
 20
12.22517638924579
 30
0.0
 10
30.75852555259475
 20
12.15857389774607
 30
0.0
 10
30.77253871962823
 20
12.02535459072775
 30
0.0
 10
30.77856143588479
 20
11.95866657306644
 30
0.0
 10
30.79447339963288
 20
11.7584307818634
 30
0.0
 10
30.80228032281354
 20
11.62471715304249
 30
0.0
 10
30.81349209413392
 20
11.35693927403916
 30
0.0
 10
30.81688745344098
 20
11.22295911264463
 30
0.0
 10
30.81739332404754
 20
11.02194952876576
 30
0.0
 10
30.81677790030195
 20
10.95492362407061
 30
0.0
 10
30.81334959492343
 20
10.82096647509278
 30
0.0
 10
30.81056163443286
 20
10.7539990265647
 30
0.0
 10
30.80370972909438
 20
10.65371150690709
 30
0.0
 10
30.80097477838239
 20
10.62032379232593
 30
0.0
 10
30.79424539662498
 20
10.55366414673921
 30
0.0
 10
30.79025466174
 20
10.52036601763978
 30
0.0
 10
30.78039894882118
 20
10.4540920244984
 30
0.0
 10
30.77455826599228
 20
10.42111697235799
 30
0.0
 10
30.75973137023982
 20
10.35572491624067
 30
0.0
 10
30.75084237139193
 20
10.32344312169252
 30
0.0
 10
30.73308532721014
 20
10.2767032495082
 30
0.0
 10
30.72641323711321
 20
10.261395813653
 30
0.0
 10
30.71063241079468
 20
10.23166271099255
 30
0.0
 10
30.70157821681426
 20
10.21737146652849
 30
0.0
 10
30.68559302213749
 20
10.19793477273172
 30
0.0
 10
30.67980392155285
 20
10.19173495563267
 30
0.0
 10
30.66735148193367
 20
10.18031167852057
 30
0.0
 10
30.66075448215579
 20
10.17514001999913
 30
0.0
 10
30.64677719776413
 20
10.16593742847812
 30
0.0
 10
30.63937018653771
 20
10.16189581478302
 30
0.0
 10
30.62387875430122
 20
10.15500968903774
 30
0.0
 10
30.61594397799333
 20
10.15222319172722
 30
0.0
 10
30.59167675373742
 20
10.145471236181
 30
0.0
 10
30.57478812634583
 20
10.14307150103907
 30
0.0
 10
30.5413366992848
 20
10.14100502504231
 30
0.0
 10
30.52462236441927
 20
10.14148948363943
 30
0.0
 10
30.49955374695068
 20
10.14260095272819
 30
0.0
 10
30.49119787653899
 20
10.14301617987136
 30
0.0
 10
30.47448510764367
 20
10.14370950898884
 30
0.0
 10
30.46612827328226
 20
10.14399616364719
 30
0.0
 10
30.44105746961445
 20
10.14481603551424
 30
0.0
 10
30.42434315619364
 20
10.14530335442852
 30
0.0
 10
30.40763001763752
 20
10.14594737785783
 30
0.0
  0
SPLINE
  5
90
330
1F
100
AcDbEntity
  8
0
  6
Continuous
 62
     5
370
     0
100
AcDbSpline
210
0.0
220
0.0
230
1.0
 70
     8
 71
     3
 72
   188
 73
   184
 74
     0
 42
0.000000001
 43
0.00000001
 40
0.0
 40
0.0
 40
0.0
 40
0.0
 40
0.0156250000000003
 40
0.0156250000000003
 40
0.0234375000000005
 40
0.0234375000000005
 40
0.0312500000000006
 40
0.0312500000000006
 40
0.0351562500000007
 40
0.0351562500000007
 40
0.0390625000000008
 40
0.0390625000000008
 40
0.046875000000001
 40
0.046875000000001
 40
0.0625000000000014
 40
0.0625000000000014
 40
0.0781250000000018
 40
0.0781250000000018
 40
0.085937500000002
 40
0.085937500000002
 40
0.0937500000000022
 40
0.0937500000000022
 40
0.1015625000000024
 40
0.1015625000000024
 40
0.1093750000000026
 40
0.1093750000000026
 40
0.1171875000000028
 40
0.1171875000000028
 40
0.1250000000000029
 40
0.1250000000000029
 40
0.1406250000000033
 40
0.1406250000000033
 40
0.1562500000000037
 40
0.1562500000000037
 40
0.1718750000000041
 40
0.1718750000000041
 40
0.1875000000000046
 40
0.1875000000000046
 40
0.2031250000000049
 40
0.2031250000000049
 40
0.2187500000000053
 40
0.2187500000000053
 40
0.2265625000000056
 40
0.2265625000000056
 40
0.2343750000000058
 40
0.2343750000000058
 40
0.2500000000000062
 40
0.2500000000000062
 40
0.2656250000000066
 40
0.2656250000000066
 40
0.2734375000000068
 40
0.2734375000000068
 40
0.2812500000000069
 40
0.2812500000000069
 40
0.3125000000000078
 40
0.3125000000000078
 40
0.3281250000000082
 40
0.3281250000000082
 40
0.3437500000000086
 40
0.3437500000000086
 40
0.359375000000009
 40
0.359375000000009
 40
0.3750000000000095
 40
0.3750000000000095
 40
0.3906250000000099
 40
0.3906250000000099
 40
0.3984375000000101
 40
0.3984375000000101
 40
0.4062500000000103
 40
0.4062500000000103
 40
0.4140625000000104
 40
0.4140625000000104
 40
0.4218750000000106
 40
0.4218750000000106
 40
0.4375000000000109
 40
0.4375000000000109
 40
0.4531250000000113
 40
0.4531250000000113
 40
0.4609375000000115
 40
0.4609375000000115
 40
0.4687500000000118
 40
0.4687500000000118
 40
0.484375000000012
 40
0.484375000000012
 40
0.5000000000000124
 40
0.5000000000000124
 40
0.5156250000000128
 40
0.5156250000000128
 40
0.5234375000000129
 40
0.5234375000000129
 40
0.5312500000000131
 40
0.5312500000000131
 40
0.5390625000000132
 40
0.5390625000000132
 40
0.5468750000000134
 40
0.5468750000000134
 40
0.5546875000000135
 40
0.5546875000000135
 40
0.5625000000000137
 40
0.5625000000000137
 40
0.5664062500000138
 40
0.5664062500000138
 40
0.5703125000000139
 40
0.5703125000000139
 40
0.574218750000014
 40
0.574218750000014
 40
0.576171875000014
 40
0.576171875000014
 40
0.578125000000014
 40
0.578125000000014
 40
0.5800781250000141
 40
0.5800781250000141
 40
0.5820312500000141
 40
0.5820312500000141
 40
0.5830078125000141
 40
0.5830078125000141
 40
0.5839843750000141
 40
0.5839843750000141
 40
0.5849609375000141
 40
0.5849609375000141
 40
0.5859375000000142
 40
0.5859375000000142
 40
0.5878906250000141
 40
0.5878906250000141
 40
0.589843750000014
 40
0.589843750000014
 40
0.591796875000014
 40
0.591796875000014
 40
0.5937500000000139
 40
0.5937500000000139
 40
0.5976562500000138
 40
0.5976562500000138
 40
0.6015625000000135
 40
0.6015625000000135
 40
0.6054687500000134
 40
0.6054687500000134
 40
0.6093750000000133
 40
0.6093750000000133
 40
0.617187500000013
 40
0.617187500000013
 40
0.6250000000000128
 40
0.6250000000000128
 40
0.6406250000000123
 40
0.6406250000000123
 40
0.6562500000000118
 40
0.6562500000000118
 40
0.6640625000000115
 40
0.6640625000000115
 40
0.6718750000000112
 40
0.6718750000000112
 40
0.6875000000000108
 40
0.6875000000000108
 40
0.7187500000000098
 40
0.7187500000000098
 40
0.7500000000000087
 40
0.7500000000000087
 40
0.7812500000000077
 40
0.7812500000000077
 40
0.8125000000000067
 40
0.8125000000000067
 40
0.8750000000000046
 40
0.8750000000000046
 40
0.890625000000004
 40
0.890625000000004
 40
0.9062500000000034
 40
0.9062500000000034
 40
0.9140625000000031
 40
0.9140625000000031
 40
0.9218750000000029
 40
0.9218750000000029
 40
0.9375000000000023
 40
0.9375000000000023
 40
0.9531250000000017
 40
0.9531250000000017
 40
0.9609375000000014
 40
0.9609375000000014
 40
0.9687500000000011
 40
0.9687500000000011
 40
0.9765625000000009
 40
0.9765625000000009
 40
0.9843750000000006
 40
0.9843750000000006
 40
1.0
 40
1.0
 40
1.0
 40
1.0
 10
36.32693398588669
 20
10.05792535991114
 30
0.0
 10
36.22163380924857
 20
10.06423808117182
 30
0.0
 10
36.11771056164743
 20
10.07676743464012
 30
0.0
 10
35.9645310595571
 20
10.10777580960729
 30
0.0
 10
35.91393474230169
 20
10.12020464470096
 30
0.0
 10
35.81385166737306
 20
10.15007181330499
 30
0.0
 10
35.76435868469016
 20
10.1674820418111
 30
0.0
 10
35.69085255533534
 20
10.19690832795719
 30
0.0
 10
35.66647096398093
 20
10.20726091201394
 30
0.0
 10
35.61791517145972
 20
10.22890241633988
 30
0.0
 10
35.59369636093052
 20
10.24021183968689
 30
0.0
 10
35.52169609577813
 20
10.27505821054818
 30
0.0
 10
35.47449863860412
 20
10.29945981539504
 30
0.0
 10
35.33444166006508
 20
10.37490385601974
 30
0.0
 10
35.24319449814003
 20
10.42829776621121
 30
0.0
 10
35.06357101406122
 20
10.5392724360647
 30
0.0
 10
34.97522449479764
 20
10.5968966604369
 30
0.0
 10
34.84478343915969
 20
10.68636461911955
 30
0.0
 10
34.80164619467946
 20
10.71668766184562
 30
0.0
 10
34.71612949470767
 20
10.77843891118193
 30
0.0
 10
34.67376388340789
 20
10.80988730824006
 30
0.0
 10
34.59008255741625
 20
10.87431527769663
 30
0.0
 10
34.54876844697741
 20
10.90729718974479
 30
0.0
 10
34.46746397682274
 20
10.97519157962
 30
0.0
 10
34.4275058716318
 20
11.01015109763321
 30
0.0
 10
34.3489568872796
 20
11.08206410407811
 30
0.0
 10
34.3102653730874
 20
11.11905771802877
 30
0.0
 10
34.23440304228379
 20
11.19420078079284
 30
0.0
 10
34.19722966756325
 20
11.23233181024701
 30
0.0
 10
34.08745779311733
 20
11.34801568031385
 30
0.0
 10
34.0164975315214
 20
11.42677807799366
 30
0.0
 10
33.88040455601818
 20
11.58860551494028
 30
0.0
 10
33.81545062350152
 20
11.6718025535114
 30
0.0
 10
33.69200469482352
 20
11.84296765914948
 30
0.0
 10
33.63343506388689
 20
11.93087840628906
 30
0.0
 10
33.52172393667491
 20
12.11070764433457
 30
0.0
 10
33.46853228582744
 20
12.20258910471574
 30
0.0
 10
33.36616294086421
 20
12.38931564209357
 30
0.0
 10
33.31694336891591
 20
12.48420080974527
 30
0.0
 10
33.22235408121528
 20
12.6752040240819
 30
0.0
 10
33.17678145469372
 20
12.77143241315431
 30
0.0
 10
33.11148056383551
 20
12.91706565428633
 30
0.0
 10
33.09024153806527
 20
12.96583288554271
 30
0.0
 10
33.04890871290715
 20
13.06385069383749
 30
0.0
 10
33.02886436366574
 20
13.11312214143823
 30
0.0
 10
32.9699952073174
 20
13.26146991289258
 30
0.0
 10
32.93230114828582
 20
13.36102347192017
 30
0.0
 10
32.85508379193397
 20
13.55935855518445
 30
0.0
 10
32.81548356495087
 20
13.65810761105679
 30
0.0
 10
32.75801877370549
 20
13.80704809846537
 30
0.0
 10
32.73922120453539
 20
13.85684575284688
 30
0.0
 10
32.70280826060297
 20
13.95694000984272
 30
0.0
 10
32.68512953607707
 20
14.00720909199328
 30
0.0
 10
32.59884728803757
 20
14.25911467847969
 30
0.0
 10
32.5363756022803
 20
14.46267419169951
 30
0.0
 10
32.44171018965261
 20
14.76771603971234
 30
0.0
 10
32.4099520623926
 20
14.86933362765577
 30
0.0
 10
32.3475006968692
 20
15.07289945028369
 30
0.0
 10
32.316973358258
 20
15.17489919660863
 30
0.0
 10
32.25710497005083
 20
15.37926703055826
 30
0.0
 10
32.22762525100077
 20
15.48159395278936
 30
0.0
 10
32.16905246351161
 20
15.68635975934876
 30
0.0
 10
32.14005956723368
 20
15.78882029021555
 30
0.0
 10
32.08315231235711
 20
15.99402661600493
 30
0.0
 10
32.05524296504735
 20
16.09677373637088
 30
0.0
 10
32.0131803650972
 20
16.25084189446472
 30
0.0
 10
31.99908940016402
 20
16.30217940676199
 30
0.0
 10
31.97081974894333
 20
16.40483122980391
 30
0.0
 10
31.95663941706978
 20
16.45614510530422
 30
0.0
 10
31.92870927446854
 20
16.55888672549221
 30
0.0
 10
31.91495259600648
 20
16.6103126537218
 30
0.0
 10
31.88834424939615
 20
16.71340387772277
 30
0.0
 10
31.87558110090657
 20
16.76509258619149
 30
0.0
 10
31.83838782444838
 20
16.920448638991
 30
0.0
 10
31.81483572689759
 20
17.02434821490951
 30
0.0
 10
31.76443743552261
 20
17.23127610626114
 30
0.0
 10
31.73764364514923
 20
17.33433810869096
 30
0.0
 10
31.69775335037996
 20
17.48901477855393
 30
0.0
 10
31.68452867660971
 20
17.54059105932616
 30
0.0
 10
31.65854619846293
 20
17.64385624551892
 30
0.0
 10
31.64574025754654
 20
17.69553353878126
 30
0.0
 10
31.60764750373227
 20
17.85064383616295
 30
0.0
 10
31.58262019040443
 20
17.95413944033204
 30
0.0
 10
31.53252415018331
 20
18.16112065832175
 30
0.0
 10
31.50755711862404
 20
18.26463080448714
 30
0.0
 10
31.45836054535
 20
18.47182900424775
 30
0.0
 10
31.43412698144716
 20
18.57551608755579
 30
0.0
 10
31.4000536332184
 20
18.73159600115959
 30
0.0
 10
31.38910194944127
 20
18.78372691494201
 30
0.0
 10
31.36802029700495
 20
18.88815603000057
 30
0.0
 10
31.35784138024617
 20
18.94043657871472
 30
0.0
 10
31.33777067535034
 20
19.0450500316627
 30
0.0
 10
31.32788143916092
 20
19.09738340122339
 30
0.0
 10
31.30792164268923
 20
19.20201707740142
 30
0.0
 10
31.29772856348545
 20
19.25429504371124
 30
0.0
 10
31.27748862839075
 20
19.35887763893789
 30
0.0
 10
31.26746976243212
 20
19.41118737158638
 30
0.0
 10
31.24929597945792
 20
19.51614671249541
 30
0.0
 10
31.24109240459255
 20
19.56878744840081
 30
0.0
 10
31.23266055578273
 20
19.6484548552793
 30
0.0
 10
31.23051782328753
 20
19.67505067694112
 30
0.0
 10
31.22794359059627
 20
19.72823898260246
 30
0.0
 10
31.22749952872417
 20
19.75484552427409
 30
0.0
 10
31.22898232974606
 20
19.80809344879414
 30
0.0
 10
31.23089816187253
 20
19.83487298161845
 30
0.0
 10
31.23660608555273
 20
19.87450921709431
 30
0.0
 10
31.23898289741149
 20
19.88761907986075
 30
0.0
 10
31.24504900395416
 20
19.91355587689751
 30
0.0
 10
31.24872621693856
 20
19.92638541558843
 30
0.0
 10
31.25810536418661
 20
19.95160802908918
 30
0.0
 10
31.26371804023952
 20
19.96380951940552
 30
0.0
 10
31.27800878480016
 20
19.98666321004048
 30
0.0
 10
31.28647305910719
 20
19.99700292084232
 30
0.0
 10
31.3024052712862
 20
20.00951626579751
 30
0.0
 10
31.30816329599206
 20
20.01306959698567
 30
0.0
 10
31.32037283666088
 20
20.01859146396443
 30
0.0
 10
31.32693648372485
 20
20.02058884762945
 30
0.0
 10
31.34014765289346
 20
20.0229260415527
 30
0.0
 10
31.34691067242607
 20
20.02331456559606
 30
0.0
 10
31.360397648552
 20
20.02279698835996
 30
0.0
 10
31.36702625946249
 20
20.02190924008402
 30
0.0
 10
31.38665823381977
 20
20.01785610462271
 30
0.0
 10
31.39947029409505
 20
20.01327605375058
 30
0.0
 10
31.42378500702075
 20
20.00228983533959
 30
0.0
 10
31.43543626613252
 20
19.99583367037771
 30
0.0
 10
31.45808917969319
 20
19.98168520375236
 30
0.0
 10
31.46910743846208
 20
19.97396058748337
 30
0.0
 10
31.4903412224768
 20
19.95786818535463
 30
0.0
 10
31.50060598517805
 20
19.94946711598071
 30
0.0
 10
31.53062358634812
 20
19.92348117953858
 30
0.0
 10
31.54961276028055
 20
19.90512670784392
 30
0.0
 10
31.58628671590778
 20
19.86710322612754
 30
0.0
 10
31.60395648990948
 20
19.84741909167602
 30
0.0
 10
31.63831992242637
 20
19.80706711466706
 30
0.0
 10
31.65503070847622
 20
19.7863769470485
 30
0.0
 10
31.68762663110667
 20
19.74447551748698
 30
0.0
 10
31.70354288987421
 20
19.72325962463641
 30
0.0
 10
31.75058346906235
 20
19.65911994427562
 30
0.0
 10
31.78102303843835
 20
19.61572044351263
 30
0.0
 10
31.84138534444454
 20
19.52856238567231
 30
0.0
 10
31.87130904577073
 20
19.48480449879266
 30
0.0
 10
31.96118430390024
 20
19.3536031965832
 30
0.0
 10
32.0211509804548
 20
19.26617028531282
 30
0.0
 10
32.14108970801679
 20
19.09130819653618
 30
0.0
 10
32.20115785212019
 20
19.00394577724704
 30
0.0
 10
32.29068109106173
 20
18.87249991872158
 30
0.0
 10
32.32041741149441
 20
18.82861381413745
 30
0.0
 10
32.37953841817421
 20
18.7405890520556
 30
0.0
 10
32.40890443739841
 20
18.69642222038408
 30
0.0
 10
32.49681618476235
 20
18.56377376601236
 30
0.0
 10
32.55519849877714
 20
18.47516236708479
 30
0.0
 10
32.7332198388173
 20
18.21161088929156
 30
0.0
 10
32.85531337499804
 20
18.03862007317291
 30
0.0
 10
33.10357521323389
 20
17.6958744386797
 30
0.0
 10
33.22964638359123
 20
17.52604248263268
 30
0.0
 10
33.48911908846549
 20
17.19220001957804
 30
0.0
 10
33.62225687357029
 20
17.02798005452272
 30
0.0
 10
33.89235823811337
 20
16.70257840003636
 30
0.0
 10
34.02934144731005
 20
16.54141229968684
 30
0.0
 10
34.44271186427588
 20
16.05983648184198
 30
0.0
 10
34.72173413625526
 20
15.74151941509206
 30
0.0
 10
35.06584571494041
 20
15.33991734457095
 30
0.0
 10
35.13437353606228
 20
15.25936305594744
 30
0.0
 10
35.27148637553548
 20
15.09829990219552
 30
0.0
 10
35.34017955110266
 20
15.01787723456279
 30
0.0
 10
35.44327260104009
 20
14.89728436323051
 30
0.0
 10
35.47763585710368
 20
14.85708594682404
 30
0.0
 10
35.5463005358416
 20
14.77664431076467
 30
0.0
 10
35.58063632359821
 20
14.73642599136758
 30
0.0
 10
35.6829254896067
 20
14.61525064170766
 30
0.0
 10
35.75002373334807
 20
14.53367399796218
 30
0.0
 10
35.87776919655049
 20
14.3658464264096
 30
0.0
 10
35.93862766736744
 20
14.27974856713879
 30
0.0
 10
36.03125871306664
 20
14.15157513533378
 30
0.0
 10
36.06240688089129
 20
14.10904712984746
 30
0.0
 10
36.12570063000285
 20
14.02471382485903
 30
0.0
 10
36.15766404102391
 20
13.98277652840046
 30
0.0
 10
36.22076766669885
 20
13.89830546374612
 30
0.0
 10
36.2519020219825
 20
13.85576744996706
 30
0.0
 10
36.31179781928436
 20
13.768972056588
 30
0.0
 10
36.34042298772632
 20
13.72461593586202
 30
0.0
 10
36.42235899679892
 20
13.58869309294353
 30
0.0
 10
36.47204655996023
 20
13.49450101585969
 30
0.0
 10
36.5186199474472
 20
13.39805246894052
 30
0.0
  0
SPLINE
  5
91
330
1F
100
AcDbEntity
  8
0
  6
Continuous
 62
     5
370
     0
100
AcDbSpline
210
0.0
220
0.0
230
1.0
 70
     8
 71
     3
 72
    58
 73
    54
 74
     0
 42
0.000000001
 43
0.00000001
 40
0.0
 40
0.0
 40
0.0
 40
0.0
 40
0.0312500000000002
 40
0.0312500000000002
 40
0.0625000000000004
 40
0.0625000000000004
 40
0.0937500000000006
 40
0.0937500000000006
 40
0.1250000000000008
 40
0.1250000000000008
 40
0.1875000000000012
 40
0.1875000000000012
 40
0.2500000000000016
 40
0.2500000000000016
 40
0.3125000000000019
 40
0.3125000000000019
 40
0.3750000000000023
 40
0.3750000000000023
 40
0.5000000000000027
 40
0.5000000000000027
 40
0.625000000000003
 40
0.625000000000003
 40
0.6875000000000029
 40
0.6875000000000029
 40
0.7500000000000029
 40
0.7500000000000029
 40
0.7812500000000029
 40
0.7812500000000029
 40
0.8125000000000028
 40
0.8125000000000028
 40
0.8437500000000028
 40
0.8437500000000028
 40
0.8750000000000028
 40
0.8750000000000028
 40
0.8906250000000027
 40
0.8906250000000027
 40
0.9062500000000026
 40
0.9062500000000026
 40
0.9140625000000021
 40
0.9140625000000021
 40
0.9218750000000018
 40
0.9218750000000018
 40
0.9375000000000009
 40
0.9375000000000009
 40
0.9531250000000001
 40
0.9531250000000001
 40
0.9609375
 40
0.9609375
 40
0.9687499999999998
 40
0.9687499999999998
 40
0.9843749999999999
 40
0.9843749999999999
 40
1.0
 40
1.0
 40
1.0
 40
1.0
 10
36.5186199474472
 20
13.39805246894054
 30
0.0
 10
36.53531781242641
 20
13.36344702394107
 30
0.0
 10
36.55152098801343
 20
13.3287304571643
 30
0.0
 10
36.582049099875
 20
13.25887541585655
 30
0.0
 10
36.59635962403385
 20
13.22373370394072
 30
0.0
 10
36.62255406386974
 20
13.15290519252182
 30
0.0
 10
36.63444040235044
 20
13.11721893725166
 30
0.0
 10
36.65583238265324
 20
13.04531165226902
 30
0.0
 10
36.66534876514423
 20
13.00909303522646
 30
0.0
 10
36.69091470534143
 20
12.89976706806294
 30
0.0
 10
36.70403764128834
 20
12.82600231267638
 30
0.0
 10
36.72563893251412
 20
12.67742949257289
 30
0.0
 10
36.7341206411889
 20
12.60262218112726
 30
0.0
 10
36.74833929037356
 20
12.4523910026327
 30
0.0
 10
36.75405857432957
 20
12.37694874805192
 30
0.0
 10
36.76368550616917
 20
12.22571680909598
 30
0.0
 10
36.76757417651351
 20
12.15008140763207
 30
0.0
 10
36.7772303807693
 20
11.92313297278623
 30
0.0
 10
36.78106164122734
 20
11.77177925404689
 30
0.0
 10
36.7845599301844
 20
11.4689843169098
 30
0.0
 10
36.78423862959833
 20
11.31751938333666
 30
0.0
 10
36.7793162500687
 20
11.09030499916852
 30
0.0
 10
36.77691751052082
 20
11.01459637128882
 30
0.0
 10
36.76991468542253
 20
10.86326495022488
 30
0.0
 10
36.76533362434752
 20
10.78761410134164
 30
0.0
 10
36.75572018957869
 20
10.67440926523285
 30
0.0
 10
36.75205142269868
 20
10.63671718180635
 30
0.0
 10
36.74341236649141
 20
10.5614531681905
 30
0.0
 10
36.73844687933844
 20
10.52387404901155
 30
0.0
 10
36.72660218448525
 20
10.44907713484891
 30
0.0
 10
36.71973620222374
 20
10.41182207136272
 30
0.0
 10
36.70287796487349
 20
10.33791514295771
 30
0.0
 10
36.69298082433897
 20
10.3014547908502
 30
0.0
 10
36.67396677373847
 20
10.24816441811421
 30
0.0
 10
36.66692141732076
 20
10.23063855760238
 30
0.0
 10
36.65071656930323
 20
10.19629697970227
 30
0.0
 10
36.64155413476599
 20
10.1795102757173
 30
0.0
 10
36.62582433410847
 20
10.15586315697963
 30
0.0
 10
36.6202366343594
 20
10.14821438789301
 30
0.0
 10
36.60822083948046
 20
10.13348682894426
 30
0.0
 10
36.60175313157428
 20
10.12637640035577
 30
0.0
 10
36.58130723852189
 20
10.10654525912567
 30
0.0
 10
36.56619770241902
 20
10.09520914300621
 30
0.0
 10
36.53260422212763
 20
10.07683698863205
 30
0.0
 10
36.51483010335381
 20
10.07019437162195
 30
0.0
 10
36.48722349544278
 20
10.06320514331594
 30
0.0
 10
36.47781296572963
 20
10.0613588624244
 30
0.0
 10
36.45901618667295
 20
10.05850721964291
 30
0.0
 10
36.4496071314346
 20
10.05749090530817
 30
0.0
 10
36.42135628513299
 20
10.05535117203219
 30
0.0
 10
36.4024912111289
 20
10.05512169531654
 30
0.0
 10
36.36473053116767
 20
10.05583500797938
 30
0.0
 10
36.34583474322287
 20
10.05678478472591
 30
0.0
 10
36.32693398588669
 20
10.05792535991115
 30
0.0
  0
ENDSEC
  0
SECTION
  2
OBJECTS
  0
DICTIONARY
  5
C
330
0
100
AcDbDictionary
281
     1
  3
ACAD_GROUP
350
D
  3
ACAD_LAYOUT
350
1A
  3
ACAD_MLINESTYLE
350
17
  3
ACAD_PLOTSETTINGS
350
19
  3
ACAD_PLOTSTYLENAME
350
E
  3
ACAD_SCALELIST
350
47
  0
DICTIONARY
  5
D
102
{ACAD_REACTORS
330
C
102
}
330
C
100
AcDbDictionary
281
     1
  0
DICTIONARY
  5
1A
102
{ACAD_REACTORS
330
C
102
}
330
C
100
AcDbDictionary
281
     1
  3
Layout1
350
1E
  3
Layout2
350
26
  3
Model
350
22
  0
DICTIONARY
  5
17
102
{ACAD_REACTORS
330
C
102
}
330
C
100
AcDbDictionary
281
     1
  3
Standard
350
18
  0
DICTIONARY
  5
19
102
{ACAD_REACTORS
330
C
102
}
330
C
100
AcDbDictionary
281
     1
  0
ACDBDICTIONARYWDFLT
  5
E
102
{ACAD_REACTORS
330
C
102
}
330
C
100
AcDbDictionary
281
     1
  3
Normal
350
F
100
AcDbDictionaryWithDefault
340
F
  0
DICTIONARY
  5
47
102
{ACAD_REACTORS
330
C
102
}
330
C
100
AcDbDictionary
281
     1
  3
A0
350
48
  3
A1
350
49
  3
A2
350
4A
  3
A3
350
4B
  3
A4
350
4C
  3
A5
350
4D
  3
A6
350
4E
  3
A7
350
4F
  3
A8
350
50
  3
A9
350
51
  3
B0
350
52
  3
B1
350
53
  3
B2
350
54
  3
B3
350
55
  3
B4
350
56
  3
B5
350
57
  3
B6
350
58
  3
B7
350
59
  3
B8
350
5A
  3
B9
350
5B
  3
C0
350
5C
  3
C1
350
5D
  3
C2
350
5E
  3
C3
350
5F
  3
C4
350
60
  3
C5
350
61
  3
C6
350
62
  3
C7
350
63
  3
C8
350
64
  3
C9
350
65
  3
D0
350
66
  3
D1
350
67
  3
D2
350
68
  0
LAYOUT
  5
1E
102
{ACAD_REACTORS
330
1A
102
}
330
1A
100
AcDbPlotSettings
  1

  2
none_device
  4

  6

 40
0.0
 41
0.0
 42
0.0
 43
0.0
 44
0.0
 45
0.0
 46
0.0
 47
0.0
 48
0.0
 49
0.0
140
0.0
141
0.0
142
1.0
143
1.0
 70
   688
 72
     0
 73
     0
 74
     5
  7

 75
    16
147
1.0
148
0.0
149
0.0
100
AcDbLayout
  1
Layout1
 70
     1
 71
     1
 10
0.0
 20
0.0
 11
12.0
 21
9.0
 12
0.0
 22
0.0
 32
0.0
 14
1.0000000000E+20
 24
1.0000000000E+20
 34
1.0000000000E+20
 15
-1.0000000000E+20
 25
-1.0000000000E+20
 35
-1.0000000000E+20
146
0.0
 13
0.0
 23
0.0
 33
0.0
 16
1.0
 26
0.0
 36
0.0
 17
0.0
 27
1.0
 37
0.0
 76
     0
330
1B
  0
LAYOUT
  5
26
102
{ACAD_REACTORS
330
1A
102
}
330
1A
100
AcDbPlotSettings
  1

  2
none_device
  4

  6

 40
0.0
 41
0.0
 42
0.0
 43
0.0
 44
0.0
 45
0.0
 46
0.0
 47
0.0
 48
0.0
 49
0.0
140
0.0
141
0.0
142
1.0
143
1.0
 70
   688
 72
     0
 73
     0
 74
     5
  7

 75
    16
147
1.0
148
0.0
149
0.0
100
AcDbLayout
  1
Layout2
 70
     1
 71
     2
 10
0.0
 20
0.0
 11
0.0
 21
0.0
 12
0.0
 22
0.0
 32
0.0
 14
0.0
 24
0.0
 34
0.0
 15
0.0
 25
0.0
 35
0.0
146
0.0
 13
0.0
 23
0.0
 33
0.0
 16
1.0
 26
0.0
 36
0.0
 17
0.0
 27
1.0
 37
0.0
 76
     0
330
23
  0
LAYOUT
  5
22
102
{ACAD_REACTORS
330
1A
102
}
330
1A
100
AcDbPlotSettings
  1

  2
none_device
  4
Letter_(8.50_x_11.00_Inches)
  6

 40
6.35
 41
6.35
 42
6.35000508
 43
6.35000508
 44
215.9
 45
279.4
 46
0.0
 47
0.0
 48
0.0
 49
0.0
140
0.0
141
0.0
142
1.0
143
1.0
 70
  1712
 72
     0
 73
     0
 74
     0
  7

 75
     0
147
1.0
148
0.0
149
0.0
100
AcDbLayout
  1
Model
 70
     1
 71
     0
 10
0.0
 20
0.0
 11
44.0
 21
34.0
 12
0.0
 22
0.0
 32
0.0
 14
0.0
 24
0.0
 34
0.0
 15
44.0
 25
34.0
 35
0.0
146
0.0
 13
0.0
 23
0.0
 33
0.0
 16
1.0
 26
0.0
 36
0.0
 17
0.0
 27
1.0
 37
0.0
 76
     0
330
1F
331
29
  0
MLINESTYLE
  5
18
102
{ACAD_REACTORS
330
17
102
}
330
17
100
AcDbMlineStyle
  2
Standard
 70
     0
  3

 62
   256
 51
90.0
 52
90.0
 71
     2
 49
0.5
 62
   256
  6
BYLAYER
 49
-0.5
 62
   256
  6
BYLAYER
  0
ACDBPLACEHOLDER
  5
F
102
{ACAD_REACTORS
330
E
102
}
330
E
  0
SCALE
  5
48
102
{ACAD_REACTORS
330
47
102
}
330
47
100
AcDbScale
 70
     0
300
1:1
140
1.0
141
1.0
290
     1
  0
SCALE
  5
49
102
{ACAD_REACTORS
330
47
102
}
330
47
100
AcDbScale
 70
     0
300
1:2
140
1.0
141
2.0
290
     0
  0
SCALE
  5
4A
102
{ACAD_REACTORS
330
47
102
}
330
47
100
AcDbScale
 70
     0
300
1:4
140
1.0
141
4.0
290
     0
  0
SCALE
  5
4B
102
{ACAD_REACTORS
330
47
102
}
330
47
100
AcDbScale
 70
     0
300
1:5
140
1.0
141
5.0
290
     0
  0
SCALE
  5
4C
102
{ACAD_REACTORS
330
47
102
}
330
47
100
AcDbScale
 70
     0
300
1:8
140
1.0
141
8.0
290
     0
  0
SCALE
  5
4D
102
{ACAD_REACTORS
330
47
102
}
330
47
100
AcDbScale
 70
     0
300
1:10
140
1.0
141
10.0
290
     0
  0
SCALE
  5
4E
102
{ACAD_REACTORS
330
47
102
}
330
47
100
AcDbScale
 70
     0
300
1:16
140
1.0
141
16.0
290
     0
  0
SCALE
  5
4F
102
{ACAD_REACTORS
330
47
102
}
330
47
100
AcDbScale
 70
     0
300
1:20
140
1.0
141
20.0
290
     0
  0
SCALE
  5
50
102
{ACAD_REACTORS
330
47
102
}
330
47
100
AcDbScale
 70
     0
300
1:30
140
1.0
141
30.0
290
     0
  0
SCALE
  5
51
102
{ACAD_REACTORS
330
47
102
}
330
47
100
AcDbScale
 70
     0
300
1:40
140
1.0
141
40.0
290
     0
  0
SCALE
  5
52
102
{ACAD_REACTORS
330
47
102
}
330
47
100
AcDbScale
 70
     0
300
1:50
140
1.0
141
50.0
290
     0
  0
SCALE
  5
53
102
{ACAD_REACTORS
330
47
102
}
330
47
100
AcDbScale
 70
     0
300
1:100
140
1.0
141
100.0
290
     0
  0
SCALE
  5
54
102
{ACAD_REACTORS
330
47
102
}
330
47
100
AcDbScale
 70
     0
300
2:1
140
2.0
141
1.0
290
     0
  0
SCALE
  5
55
102
{ACAD_REACTORS
330
47
102
}
330
47
100
AcDbScale
 70
     0
300
4:1
140
4.0
141
1.0
290
     0
  0
SCALE
  5
56
102
{ACAD_REACTORS
330
47
102
}
330
47
100
AcDbScale
 70
     0
300
8:1
140
8.0
141
1.0
290
     0
  0
SCALE
  5
57
102
{ACAD_REACTORS
330
47
102
}
330
47
100
AcDbScale
 70
     0
300
10:1
140
10.0
141
1.0
290
     0
  0
SCALE
  5
58
102
{ACAD_REACTORS
330
47
102
}
330
47
100
AcDbScale
 70
     0
300
100:1
140
100.0
141
1.0
290
     0
  0
SCALE
  5
59
102
{ACAD_REACTORS
330
47
102
}
330
47
100
AcDbScale
 70
     0
300
1/128" = 1'-0"
140
0.0078125
141
12.0
290
     0
  0
SCALE
  5
5A
102
{ACAD_REACTORS
330
47
102
}
330
47
100
AcDbScale
 70
     0
300
1/64" = 1'-0"
140
0.015625
141
12.0
290
     0
  0
SCALE
  5
5B
102
{ACAD_REACTORS
330
47
102
}
330
47
100
AcDbScale
 70
     0
300
1/32" = 1'-0"
140
0.03125
141
12.0
290
     0
  0
SCALE
  5
5C
102
{ACAD_REACTORS
330
47
102
}
330
47
100
AcDbScale
 70
     0
300
1/16" = 1'-0"
140
0.0625
141
12.0
290
     0
  0
SCALE
  5
5D
102
{ACAD_REACTORS
330
47
102
}
330
47
100
AcDbScale
 70
     0
300
3/32" = 1'-0"
140
0.09375
141
12.0
290
     0
  0
SCALE
  5
5E
102
{ACAD_REACTORS
330
47
102
}
330
47
100
AcDbScale
 70
     0
300
1/8" = 1'-0"
140
0.125
141
12.0
290
     0
  0
SCALE
  5
5F
102
{ACAD_REACTORS
330
47
102
}
330
47
100
AcDbScale
 70
     0
300
3/16" = 1'-0"
140
0.1875
141
12.0
290
     0
  0
SCALE
  5
60
102
{ACAD_REACTORS
330
47
102
}
330
47
100
AcDbScale
 70
     0
300
1/4" = 1'-0"
140
0.25
141
12.0
290
     0
  0
SCALE
  5
61
102
{ACAD_REACTORS
330
47
102
}
330
47
100
AcDbScale
 70
     0
300
3/8" = 1'-0"
140
0.375
141
12.0
290
     0
  0
SCALE
  5
62
102
{ACAD_REACTORS
330
47
102
}
330
47
100
AcDbScale
 70
     0
300
1/2" = 1'-0"
140
0.5
141
12.0
290
     0
  0
SCALE
  5
63
102
{ACAD_REACTORS
330
47
102
}
330
47
100
AcDbScale
 70
     0
300
3/4" = 1'-0"
140
0.75
141
12.0
290
     0
  0
SCALE
  5
64
102
{ACAD_REACTORS
330
47
102
}
330
47
100
AcDbScale
 70
     0
300
1" = 1'-0"
140
1.0
141
12.0
290
     0
  0
SCALE
  5
65
102
{ACAD_REACTORS
330
47
102
}
330
47
100
AcDbScale
 70
     0
300
1-1/2" = 1'-0"
140
1.5
141
12.0
290
     0
  0
SCALE
  5
66
102
{ACAD_REACTORS
330
47
102
}
330
47
100
AcDbScale
 70
     0
300
3" = 1'-0"
140
3.0
141
12.0
290
     0
  0
SCALE
  5
67
102
{ACAD_REACTORS
330
47
102
}
330
47
100
AcDbScale
 70
     0
300
6" = 1'-0"
140
6.0
141
12.0
290
     0
  0
SCALE
  5
68
102
{ACAD_REACTORS
330
47
102
}
330
47
100
AcDbScale
 70
     0
300
1'-0" = 1'-0"
140
12.0
141
12.0
290
     0
  0
ENDSEC
  0
EOF
