999
dxflib 2.2.0.0
  0
SECTION
  2
HEADER
  9
$ACADVER
  1
AC1015
  9
$HANDSEED
  5
FFFF
  9
$INSUNITS
 70
4
  9
$DIMEXE
 40
1.25
  9
$TEXTSTYLE
  7
Standard
  9
$LIMMIN
 10
0.0
 20
0.0
  0
ENDSEC
  0
SECTION
  2
TABLES
  0
TABLE
  2
VPORT
  5
8
100
AcDbSymbolTable
 70
1
  0
VPORT
  5
30
100
AcDbSymbolTableRecord
100
AcDbViewportTableRecord
  2
*Active
 70
0
 10
0.0
 20
0.0
 11
1.0
 21
1.0
 12
286.30555555555549
 22
148.5
 13
0.0
 23
0.0
 14
10.0
 24
10.0
 15
10.0
 25
10.0
 16
0.0
 26
0.0
 36
1.0
 17
0.0
 27
0.0
 37
0.0
 40
297.0
 41
1.92798353909465
 42
50.0
 43
0.0
 44
0.0
 50
0.0
 51
0.0
 71
0
 72
100
 73
1
 74
3
 75
1
 76
1
 77
0
 78
0
281
0
 65
1
110
0.0
120
0.0
130
0.0
111
1.0
121
0.0
131
0.0
112
0.0
122
1.0
132
0.0
 79
0
146
0.0
  0
ENDTAB
  0
TABLE
  2
LTYPE
  5
5
100
AcDbSymbolTable
 70
25
  0
LTYPE
  5
14
100
AcDbSymbolTableRecord
100
AcDbLinetypeTableRecord
  2
BYBLOCK
 70
0
  3

 72
65
 73
0
 40
0.0
  0
LTYPE
  5
15
100
AcDbSymbolTableRecord
100
AcDbLinetypeTableRecord
  2
BYLAYER
 70
0
  3

 72
65
 73
0
 40
0.0
  0
LTYPE
  5
16
100
AcDbSymbolTableRecord
100
AcDbLinetypeTableRecord
  2
CONTINUOUS
 70
0
  3
Solid line
 72
65
 73
0
 40
0.0
  0
LTYPE
  5
31
100
AcDbSymbolTableRecord
100
AcDbLinetypeTableRecord
  2
ACAD_ISO02W100
 70
0
  3
ISO Dashed __ __ __ __ __ __ __ __ __ __ _
 72
65
 73
2
 40
15.0
 49
12.0
 74
0
 49
-3.0
 74
0
  0
LTYPE
  5
32
100
AcDbSymbolTableRecord
100
AcDbLinetypeTableRecord
  2
ACAD_ISO03W100
 70
0
  3
ISO Dashed with Distance __    __    __    _
 72
65
 73
2
 40
30.0
 49
12.0
 74
0
 49
-18.0
 74
0
  0
LTYPE
  5
33
100
AcDbSymbolTableRecord
100
AcDbLinetypeTableRecord
  2
ACAD_ISO04W100
 70
0
  3
ISO Long Dashed Dotted ____ . ____ . __
 72
65
 73
4
 40
30.0
 49
24.0
 74
0
 49
-3.0
 74
0
 49
0.0
 74
0
 49
-3.0
 74
0
  0
LTYPE
  5
34
100
AcDbSymbolTableRecord
100
AcDbLinetypeTableRecord
  2
ACAD_ISO05W100
 70
0
  3
ISO Long Dashed Double Dotted ____ .. __
 72
65
 73
6
 40
33.0
 49
24.0
 74
0
 49
-3.0
 74
0
 49
0.0
 74
0
 49
-3.0
 74
0
 49
0.0
 74
0
 49
-3.0
 74
0
  0
LTYPE
  5
35
100
AcDbSymbolTableRecord
100
AcDbLinetypeTableRecord
  2
BORDER
 70
0
  3
Border __ __ . __ __ . __ __ . __ __ . __ __ .
 72
65
 73
6
 40
44.450000000000003
 49
12.699999999999999
 74
0
 49
-6.3499999999999996
 74
0
 49
12.699999999999999
 74
0
 49
-6.3499999999999996
 74
0
 49
0.0
 74
0
 49
-6.3499999999999996
 74
0
  0
LTYPE
  5
36
100
AcDbSymbolTableRecord
100
AcDbLinetypeTableRecord
  2
BORDER2
 70
0
  3
Border (.5x) __.__.__.__.__.__.__.__.__.__.__.
 72
65
 73
6
 40
22.225000000000001
 49
6.3499999999999996
 74
0
 49
-3.1749999999999998
 74
0
 49
6.3499999999999996
 74
0
 49
-3.1749999999999998
 74
0
 49
0.0
 74
0
 49
-3.1749999999999998
 74
0
  0
LTYPE
  5
37
100
AcDbSymbolTableRecord
100
AcDbLinetypeTableRecord
  2
BORDERX2
 70
0
  3
Border (2x) ____  ____  .  ____  ____  .  ___
 72
65
 73
6
 40
88.900000000000006
 49
25.399999999999999
 74
0
 49
-12.699999999999999
 74
0
 49
25.399999999999999
 74
0
 49
-12.699999999999999
 74
0
 49
0.0
 74
0
 49
-12.699999999999999
 74
0
  0
LTYPE
  5
38
100
AcDbSymbolTableRecord
100
AcDbLinetypeTableRecord
  2
CENTER
 70
0
  3
Center ____ _ ____ _ ____ _ ____ _ ____ _ ____
 72
65
 73
4
 40
50.799999999999997
 49
31.75
 74
0
 49
-6.3499999999999996
 74
0
 49
6.3499999999999996
 74
0
 49
-6.3499999999999996
 74
0
  0
LTYPE
  5
39
100
AcDbSymbolTableRecord
100
AcDbLinetypeTableRecord
  2
CENTER2
 70
0
  3
Center (.5x) ___ _ ___ _ ___ _ ___ _ ___ _ ___
 72
65
 73
4
 40
28.574999999999999
 49
19.050000000000001
 74
0
 49
-3.1749999999999998
 74
0
 49
3.1749999999999998
 74
0
 49
-3.1749999999999998
 74
0
  0
LTYPE
  5
3A
100
AcDbSymbolTableRecord
100
AcDbLinetypeTableRecord
  2
CENTERX2
 70
0
  3
Center (2x) ________  __  ________  __  _____
 72
65
 73
4
 40
101.59999999999999
 49
63.5
 74
0
 49
-12.699999999999999
 74
0
 49
12.699999999999999
 74
0
 49
-12.699999999999999
 74
0
  0
LTYPE
  5
3B
100
AcDbSymbolTableRecord
100
AcDbLinetypeTableRecord
  2
DASHDOT
 70
0
  3
Dash dot __ . __ . __ . __ . __ . __ . __ . __
 72
65
 73
4
 40
25.399999999999999
 49
12.699999999999999
 74
0
 49
-6.3499999999999996
 74
0
 49
0.0
 74
0
 49
-6.3499999999999996
 74
0
  0
LTYPE
  5
3C
100
AcDbSymbolTableRecord
100
AcDbLinetypeTableRecord
  2
DASHDOT2
 70
0
  3
Dash dot (.5x) _._._._._._._._._._._._._._._.
 72
65
 73
4
 40
12.699999999999999
 49
6.3499999999999996
 74
0
 49
-3.1749999999999998
 74
0
 49
0.0
 74
0
 49
-3.1749999999999998
 74
0
  0
LTYPE
  5
3D
100
AcDbSymbolTableRecord
100
AcDbLinetypeTableRecord
  2
DASHDOTX2
 70
0
  3
Dash dot (2x) ____  .  ____  .  ____  .  ___
 72
65
 73
4
 40
50.799999999999997
 49
25.399999999999999
 74
0
 49
-12.699999999999999
 74
0
 49
0.0
 74
0
 49
-12.699999999999999
 74
0
  0
LTYPE
  5
3E
100
AcDbSymbolTableRecord
100
AcDbLinetypeTableRecord
  2
DASHED
 70
0
  3
Dashed __ __ __ __ __ __ __ __ __ __ __ __ __ _
 72
65
 73
2
 40
19.050000000000001
 49
12.699999999999999
 74
0
 49
-6.3499999999999996
 74
0
  0
LTYPE
  5
3F
100
AcDbSymbolTableRecord
100
AcDbLinetypeTableRecord
  2
DASHED2
 70
0
  3
Dashed (.5x) _ _ _ _ _ _ _ _ _ _ _ _ _ _ _ _ _
 72
65
 73
2
 40
9.5250000000000004
 49
6.3499999999999996
 74
0
 49
-3.1749999999999998
 74
0
  0
LTYPE
  5
40
100
AcDbSymbolTableRecord
100
AcDbLinetypeTableRecord
  2
DASHEDX2
 70
0
  3
Dashed (2x) ____  ____  ____  ____  ____  ___
 72
65
 73
2
 40
38.100000000000001
 49
25.399999999999999
 74
0
 49
-12.699999999999999
 74
0
  0
LTYPE
  5
41
100
AcDbSymbolTableRecord
100
AcDbLinetypeTableRecord
  2
DIVIDE
 70
0
  3
Divide ____ . . ____ . . ____ . . ____ . . ____
 72
65
 73
6
 40
31.75
 49
12.699999999999999
 74
0
 49
-6.3499999999999996
 74
0
 49
0.0
 74
0
 49
-6.3499999999999996
 74
0
 49
0.0
 74
0
 49
-6.3499999999999996
 74
0
  0
LTYPE
  5
42
100
AcDbSymbolTableRecord
100
AcDbLinetypeTableRecord
  2
DIVIDE2
 70
0
  3
Divide (.5x) __..__..__..__..__..__..__..__.._
 72
65
 73
6
 40
15.875
 49
6.3499999999999996
 74
0
 49
-3.1749999999999998
 74
0
 49
0.0
 74
0
 49
-3.1749999999999998
 74
0
 49
0.0
 74
0
 49
-3.1749999999999998
 74
0
  0
LTYPE
  5
43
100
AcDbSymbolTableRecord
100
AcDbLinetypeTableRecord
  2
DIVIDEX2
 70
0
  3
Divide (2x) ________  .  .  ________  .  .  _
 72
65
 73
6
 40
63.5
 49
25.399999999999999
 74
0
 49
-12.699999999999999
 74
0
 49
0.0
 74
0
 49
-12.699999999999999
 74
0
 49
0.0
 74
0
 49
-12.699999999999999
 74
0
  0
LTYPE
  5
44
100
AcDbSymbolTableRecord
100
AcDbLinetypeTableRecord
  2
DOT
 70
0
  3
Dot . . . . . . . . . . . . . . . . . . . . . .
 72
65
 73
2
 40
6.3499999999999996
 49
0.0
 74
0
 49
-6.3499999999999996
 74
0
  0
LTYPE
  5
45
100
AcDbSymbolTableRecord
100
AcDbLinetypeTableRecord
  2
DOT2
 70
0
  3
Dot (.5x) .....................................
 72
65
 73
2
 40
3.1749999999999998
 49
0.0
 74
0
 49
-3.1749999999999998
 74
0
  0
LTYPE
  5
46
100
AcDbSymbolTableRecord
100
AcDbLinetypeTableRecord
  2
DOTX2
 70
0
  3
Dot (2x) .  .  .  .  .  .  .  .  .  .  .  .  .
 72
65
 73
2
 40
12.699999999999999
 49
0.0
 74
0
 49
-12.699999999999999
 74
0
  0
ENDTAB
  0
TABLE
  2
LAYER
  5
2
100
AcDbSymbolTable
 70
3
  0
LAYER
  5
10
100
AcDbSymbolTableRecord
100
AcDbLayerTableRecord
  2
0
 70
0
 62
250
  6
CONTINUOUS
370
100
390
F
  0
LAYER
  5
47
100
AcDbSymbolTableRecord
100
AcDbLayerTableRecord
  2
color#fefffeff
 70
0
 62
7
  6
CONTINUOUS
370
100
390
F
  0
LAYER
  5
48
100
AcDbSymbolTableRecord
100
AcDbLayerTableRecord
  2
color#f69102ff
 70
0
 62
7
  6
CONTINUOUS
370
100
390
F
  0
ENDTAB
  0
TABLE
  2
STYLE
  5
3
100
AcDbSymbolTable
 70
1
  0
STYLE
  5
11
100
AcDbSymbolTableRecord
100
AcDbTextStyleTableRecord
  2
Standard
 70
0
 40
0.0
 41
0.75
 50
0.0
 71
0
 42
2.5
  3
txt
  4

  0
ENDTAB
  0
TABLE
  2
VIEW
  5
6
100
AcDbSymbolTable
 70
0
  0
ENDTAB
  0
TABLE
  2
UCS
  5
7
100
AcDbSymbolTable
 70
0
  0
ENDTAB
  0
TABLE
  2
APPID
  5
9
100
AcDbSymbolTable
 70
1
  0
APPID
  5
12
100
AcDbSymbolTableRecord
100
AcDbRegAppTableRecord
  2
ACAD
 70
0
  0
ENDTAB
  0
TABLE
  2
DIMSTYLE
  5
A
100
AcDbSymbolTable
 70
1
100
AcDbDimStyleTable
 71
0
  0
DIMSTYLE
105
27
100
AcDbSymbolTableRecord
100
AcDbDimStyleTableRecord
  2
Standard
 41
1.0
 42
1.0
 43
3.75
 44
1.0
 70
0
 73
0
 74
0
 77
1
 78
8
140
1.0
141
2.5
143
0.03937007874016
147
1.0
171
3
172
1
271
2
272
2
274
3
278
44
283
0
284
8
340
11
  0
ENDTAB
  0
TABLE
  2
BLOCK_RECORD
  5
1
100
AcDbSymbolTable
 70
1
  0
BLOCK_RECORD
  5
1F
100
AcDbSymbolTableRecord
100
AcDbBlockTableRecord
  2
*Model_Space
340
22
  0
BLOCK_RECORD
  5
1B
100
AcDbSymbolTableRecord
100
AcDbBlockTableRecord
  2
*Paper_Space
340
1E
  0
BLOCK_RECORD
  5
23
100
AcDbSymbolTableRecord
100
AcDbBlockTableRecord
  2
*Paper_Space0
340
26
  0
ENDTAB
  0
ENDSEC
  0
SECTION
  2
BLOCKS
  0
BLOCK
  5
20
100
AcDbEntity
  8
0
100
AcDbBlockBegin
  2
*Model_Space
 70
0
 10
0.0
 20
0.0
 30
0.0
  3
*Model_Space
  1

  0
ENDBLK
  5
21
100
AcDbEntity
  8
0
100
AcDbBlockEnd
  0
BLOCK
  5
1C
100
AcDbEntity
 67
1
  8
0
100
AcDbBlockBegin
  2
*Paper_Space
 70
0
 10
0.0
 20
0.0
 30
0.0
  3
*Paper_Space
  1

  0
ENDBLK
  5
1D
100
AcDbEntity
 67
1
  8
0
100
AcDbBlockEnd
  0
BLOCK
  5
24
100
AcDbEntity
  8
0
100
AcDbBlockBegin
  2
*Paper_Space0
 70
0
 10
0.0
 20
0.0
 30
0.0
  3
*Paper_Space0
  1

  0
ENDBLK
  5
25
100
AcDbEntity
  8
0
100
AcDbBlockEnd
  0
ENDSEC
  0
SECTION
  2
ENTITIES
  0
LINE
  5
49
100
AcDbEntity
100
AcDbLine
  8
color#f69102ff
 62
256
370
-1
  6
BYLAYER
 10
0.0
 20
1.8194444444444444
 30
0.0
 11
0.0005692369762
 21
1.8194444444444444
 31
0.0
  0
SPLINE
  5
4A
  8
color#f69102ff
 62
256
370
-1
  6
BYLAYER
100
AcDbEntity
100
AcDbSpline
 70
8
 71
3
 72
8
 73
4
 74
0
 40
0.0
 40
0.0
 40
0.0
 40
0.0
 40
1.0
 40
1.0
 40
1.0
 40
1.0
 10
0.0005692369762
 20
1.8194444444444444
 30
0.0
 10
0.00042692773215
 20
1.8187771495524159
 30
0.0
 10
0.00014230924405
 20
1.8174425597683588
 30
0.0
 10
0.0
 20
1.8167752648763302
 30
0.0
  0
LINE
  5
4B
100
AcDbEntity
100
AcDbLine
  8
color#f69102ff
 62
256
370
-1
  6
BYLAYER
 10
0.0
 20
1.8167752648763302
 30
0.0
 11
0.0
 21
1.8194444444444444
 31
0.0
  0
SPLINE
  5
4C
  8
color#f69102ff
 62
256
370
-1
  6
BYLAYER
100
AcDbEntity
100
AcDbSpline
 70
8
 71
3
 72
8
 73
4
 74
0
 40
0.0
 40
0.0
 40
0.0
 40
0.0
 40
1.0
 40
1.0
 40
1.0
 40
1.0
 10
1.3562196966315563
 20
1.7132442077861185
 30
0.0
 10
1.4120789046281423
 20
1.7623862127446743
 30
0.0
 10
1.4917990158706198
 20
1.7486796180275126
 30
0.0
 10
1.5596521131412482
 20
1.7429355043327728
 30
0.0
  0
SPLINE
  5
4D
  8
color#f69102ff
 62
256
370
-1
  6
BYLAYER
100
AcDbEntity
100
AcDbSpline
 70
8
 71
3
 72
8
 73
4
 74
0
 40
0.0
 40
0.0
 40
0.0
 40
0.0
 40
1.0
 40
1.0
 40
1.0
 40
1.0
 10
1.5596521131412482
 20
1.7429355043327728
 30
0.0
 10
1.6248489011776164
 20
1.7232741030079912
 30
0.0
 10
1.6739715626153835
 20
1.6684610500857571
 30
0.0
 10
1.7097995811530382
 20
1.612838403575944
 30
0.0
  0
SPLINE
  5
4E
  8
color#f69102ff
 62
256
370
-1
  6
BYLAYER
100
AcDbEntity
100
AcDbSpline
 70
8
 71
3
 72
8
 73
4
 74
0
 40
0.0
 40
0.0
 40
0.0
 40
0.0
 40
1.0
 40
1.0
 40
1.0
 40
1.0
 10
1.7097995811530382
 20
1.612838403575944
 30
0.0
 10
1.7515245292806871
 20
1.4909800876351529
 30
0.0
 10
1.683458916992383
 20
1.3627961961548507
 30
0.0
 10
1.5908048564700472
 20
1.2847798557480219
 30
0.0
  0
SPLINE
  5
4F
  8
color#f69102ff
 62
256
370
-1
  6
BYLAYER
100
AcDbEntity
100
AcDbSpline
 70
8
 71
3
 72
8
 73
4
 74
0
 40
0.0
 40
0.0
 40
0.0
 40
0.0
 40
1.0
 40
1.0
 40
1.0
 40
1.0
 10
1.5908048564700472
 20
1.2847798557480219
 30
0.0
 10
1.5671342538041169
 20
1.2606413092442943
 30
0.0
 10
1.5361043240345902
 20
1.2405665851662702
 30
0.0
 10
1.525317486866421
 20
1.2068487140977098
 30
0.0
  0
SPLINE
  5
50
  8
color#f69102ff
 62
256
370
-1
  6
BYLAYER
100
AcDbEntity
100
AcDbSpline
 70
8
 71
3
 72
8
 73
4
 74
0
 40
0.0
 40
0.0
 40
0.0
 40
0.0
 40
1.0
 40
1.0
 40
1.0
 40
1.0
 10
1.525317486866421
 20
1.2068487140977098
 30
0.0
 10
1.5185562720888317
 20
1.1651794453700408
 30
0.0
 10
1.5566829095067276
 20
1.1367460474827702
 30
0.0
 10
1.5819914906163284
 20
1.1097819844296817
 30
0.0
  0
SPLINE
  5
51
  8
color#f69102ff
 62
256
370
-1
  6
BYLAYER
100
AcDbEntity
100
AcDbSpline
 70
8
 71
3
 72
8
 73
4
 74
0
 40
0.0
 40
0.0
 40
0.0
 40
0.0
 40
1.0
 40
1.0
 40
1.0
 40
1.0
 10
1.5819914906163284
 20
1.1097819844296817
 30
0.0
 10
1.6348513071451423
 20
1.0578783060523154
 30
0.0
 10
1.6952379179234689
 20
0.9963789165602016
 30
0.0
 10
1.6929265334890864
 20
0.9167415686937287
 30
0.0
  0
SPLINE
  5
52
  8
color#f69102ff
 62
256
370
-1
  6
BYLAYER
100
AcDbEntity
100
AcDbSpline
 70
8
 71
3
 72
8
 73
4
 74
0
 40
0.0
 40
0.0
 40
0.0
 40
0.0
 40
1.0
 40
1.0
 40
1.0
 40
1.0
 10
1.6929265334890864
 20
0.9167415686937287
 30
0.0
 10
1.6939444972336817
 20
0.6580644705934428
 30
0.0
 10
1.6939102590333115
 20
0.3993550445347864
 30
0.0
 10
1.6926741274713095
 20
0.1406744702722911
 30
0.0
  0
SPLINE
  5
53
  8
color#f69102ff
 62
256
370
-1
  6
BYLAYER
100
AcDbEntity
100
AcDbSpline
 70
8
 71
3
 72
8
 73
4
 74
0
 40
0.0
 40
0.0
 40
0.0
 40
0.0
 40
1.0
 40
1.0
 40
1.0
 40
1.0
 10
1.6926741274713095
 20
0.1406744702722911
 30
0.0
 10
1.5551218551089749
 20
0.139054872305661
 30
0.0
 10
1.4175393709805644
 20
0.1393779375090545
 30
0.0
 10
1.279993684392295
 20
0.1407453107981807
 30
0.0
  0
SPLINE
  5
54
  8
color#f69102ff
 62
256
370
-1
  6
BYLAYER
100
AcDbEntity
100
AcDbSpline
 70
8
 71
3
 72
8
 73
4
 74
0
 40
0.0
 40
0.0
 40
0.0
 40
0.0
 40
1.0
 40
1.0
 40
1.0
 40
1.0
 10
1.279993684392295
 20
0.1407453107981807
 30
0.0
 10
1.2810302589543687
 20
0.4036554347504529
 30
0.0
 10
1.2779681255605573
 20
0.6666285313608682
 30
0.0
 10
1.2803404447188282
 20
0.9294838454994485
 30
0.0
  0
SPLINE
  5
55
  8
color#f69102ff
 62
256
370
-1
  6
BYLAYER
100
AcDbEntity
100
AcDbSpline
 70
8
 71
3
 72
8
 73
4
 74
0
 40
0.0
 40
0.0
 40
0.0
 40
0.0
 40
1.0
 40
1.0
 40
1.0
 40
1.0
 10
1.2803404447188282
 20
0.9294838454994485
 30
0.0
 10
1.2797860408717929
 20
1.0343246960567447
 30
0.0
 10
1.387069180964019
 20
1.0834820996522918
 30
0.0
 10
1.4339807104405491
 20
1.1641205618859343
 30
0.0
  0
SPLINE
  5
56
  8
color#f69102ff
 62
256
370
-1
  6
BYLAYER
100
AcDbEntity
100
AcDbSpline
 70
8
 71
3
 72
8
 73
4
 74
0
 40
0.0
 40
0.0
 40
0.0
 40
0.0
 40
1.0
 40
1.0
 40
1.0
 40
1.0
 10
1.4339807104405491
 20
1.1641205618859343
 30
0.0
 10
1.4586431248865712
 20
1.19949568574869
 30
0.0
 10
1.4272456622332073
 20
1.2382454011812516
 30
0.0
 10
1.4032115940129799
 20
1.2642125212462896
 30
0.0
  0
SPLINE
  5
57
  8
color#f69102ff
 62
256
370
-1
  6
BYLAYER
100
AcDbEntity
100
AcDbSpline
 70
8
 71
3
 72
8
 73
4
 74
0
 40
0.0
 40
0.0
 40
0.0
 40
0.0
 40
1.0
 40
1.0
 40
1.0
 40
1.0
 10
1.4032115940129799
 20
1.2642125212462896
 30
0.0
 10
1.34610491585334
 20
1.3236157265634405
 30
0.0
 10
1.2644320204935691
 20
1.3725791787410859
 30
0.0
 10
1.2508525861963391
 20
1.4607585726968066
 30
0.0
  0
SPLINE
  5
58
  8
color#f69102ff
 62
256
370
-1
  6
BYLAYER
100
AcDbEntity
100
AcDbSpline
 70
8
 71
3
 72
8
 73
4
 74
0
 40
0.0
 40
0.0
 40
0.0
 40
0.0
 40
1.0
 40
1.0
 40
1.0
 40
1.0
 10
1.2508525861963391
 20
1.4607585726968066
 30
0.0
 10
1.2391066011010925
 20
1.5548712341516762
 30
0.0
 10
1.2771604591575316
 20
1.6575399115325864
 30
0.0
 10
1.3562196966315563
 20
1.7132442077861185
 30
0.0
  0
SPLINE
  5
59
  8
color#f69102ff
 62
256
370
-1
  6
BYLAYER
100
AcDbEntity
100
AcDbSpline
 70
8
 71
3
 72
8
 73
4
 74
0
 40
0.0
 40
0.0
 40
0.0
 40
0.0
 40
1.0
 40
1.0
 40
1.0
 40
1.0
 10
0.2669488479794506
 20
1.0946027133897007
 30
0.0
 10
0.3624271313653167
 20
1.1764500368537401
 30
0.0
 10
0.4874300345504478
 20
1.2142718840955469
 30
0.0
 10
0.6110295981980537
 20
1.2239051089514132
 30
0.0
  0
SPLINE
  5
5A
  8
color#f69102ff
 62
256
370
-1
  6
BYLAYER
100
AcDbEntity
100
AcDbSpline
 70
8
 71
3
 72
8
 73
4
 74
0
 40
0.0
 40
0.0
 40
0.0
 40
0.0
 40
1.0
 40
1.0
 40
1.0
 40
1.0
 10
0.6110295981980537
 20
1.2239051089514132
 30
0.0
 10
0.7196585001801906
 20
1.2157983068407019
 30
0.0
 10
0.8323381583652321
 20
1.1957914955674103
 30
0.0
 10
0.9231034039758072
 20
1.1315403716278862
 30
0.0
  0
SPLINE
  5
5B
  8
color#f69102ff
 62
256
370
-1
  6
BYLAYER
100
AcDbEntity
100
AcDbSpline
 70
8
 71
3
 72
8
 73
4
 74
0
 40
0.0
 40
0.0
 40
0.0
 40
0.0
 40
1.0
 40
1.0
 40
1.0
 40
1.0
 10
0.9231034039758072
 20
1.1315403716278862
 30
0.0
 10
0.9951146935788536
 20
1.0798866750580727
 30
0.0
 10
1.0756434693339354
 20
1.0287604425577115
 30
0.0
 10
1.1115211541545673
 20
0.943677389964646
 30
0.0
  0
SPLINE
  5
5C
  8
color#f69102ff
 62
256
370
-1
  6
BYLAYER
100
AcDbEntity
100
AcDbSpline
 70
8
 71
3
 72
8
 73
4
 74
0
 40
0.0
 40
0.0
 40
0.0
 40
0.0
 40
1.0
 40
1.0
 40
1.0
 40
1.0
 10
1.1115211541545673
 20
0.943677389964646
 30
0.0
 10
1.1724323285583522
 20
0.8386974246145689
 30
0.0
 10
1.1939681490080287
 20
0.7172820586519407
 30
0.0
 10
1.1980937237836828
 20
0.5974261280730673
 30
0.0
  0
SPLINE
  5
5D
  8
color#f69102ff
 62
256
370
-1
  6
BYLAYER
100
AcDbEntity
100
AcDbSpline
 70
8
 71
3
 72
8
 73
4
 74
0
 40
0.0
 40
0.0
 40
0.0
 40
0.0
 40
1.0
 40
1.0
 40
1.0
 40
1.0
 10
1.1980937237836828
 20
0.5974261280730673
 30
0.0
 10
1.1936483443672947
 20
0.44115431007445
 30
0.0
 10
1.2057563525307979
 20
0.2839457880136376
 30
0.0
 10
1.1915034101689213
 20
0.1281778293031463
 30
0.0
  0
SPLINE
  5
5E
  8
color#f69102ff
 62
256
370
-1
  6
BYLAYER
100
AcDbEntity
100
AcDbSpline
 70
8
 71
3
 72
8
 73
4
 74
0
 40
0.0
 40
0.0
 40
0.0
 40
0.0
 40
1.0
 40
1.0
 40
1.0
 40
1.0
 10
1.1915034101689213
 20
0.1281778293031463
 30
0.0
 10
1.1236788946572949
 20
0.1160114356455879
 30
0.0
 10
1.054527109787748
 20
0.1229636878299822
 30
0.0
 10
0.9860552469241423
 20
0.1216266606258238
 30
0.0
  0
SPLINE
  5
5F
  8
color#f69102ff
 62
256
370
-1
  6
BYLAYER
100
AcDbEntity
100
AcDbSpline
 70
8
 71
3
 72
8
 73
4
 74
0
 40
0.0
 40
0.0
 40
0.0
 40
0.0
 40
1.0
 40
1.0
 40
1.0
 40
1.0
 10
0.9860552469241423
 20
0.1216266606258238
 30
0.0
 10
0.9137126506196218
 20
0.1230511183973088
 30
0.0
 10
0.8404838856792396
 20
0.1146697926972067
 30
0.0
 10
0.7691313863536411
 20
0.130357359189236
 30
0.0
  0
SPLINE
  5
60
  8
color#f69102ff
 62
256
370
-1
  6
BYLAYER
100
AcDbEntity
100
AcDbSpline
 70
8
 71
3
 72
8
 73
4
 74
0
 40
0.0
 40
0.0
 40
0.0
 40
0.0
 40
1.0
 40
1.0
 40
1.0
 40
1.0
 10
0.7691313863536411
 20
0.130357359189236
 30
0.0
 10
0.7641943302937946
 20
0.2488726115430018
 30
0.0
 10
0.7681038049522915
 20
0.3675297306280443
 30
0.0
 10
0.7668435577507723
 20
0.4861020030157432
 30
0.0
  0
SPLINE
  5
61
  8
color#f69102ff
 62
256
370
-1
  6
BYLAYER
100
AcDbEntity
100
AcDbSpline
 70
8
 71
3
 72
8
 73
4
 74
0
 40
0.0
 40
0.0
 40
0.0
 40
0.0
 40
1.0
 40
1.0
 40
1.0
 40
1.0
 10
0.7668435577507723
 20
0.4861020030157432
 30
0.0
 10
0.7663069978538295
 20
0.5903928370994404
 30
0.0
 10
0.7753146225746783
 20
0.7012485868270107
 30
0.0
 10
0.7266117327679895
 20
0.7973204117406115
 30
0.0
  0
SPLINE
  5
62
  8
color#f69102ff
 62
256
370
-1
  6
BYLAYER
100
AcDbEntity
100
AcDbSpline
 70
8
 71
3
 72
8
 73
4
 74
0
 40
0.0
 40
0.0
 40
0.0
 40
0.0
 40
1.0
 40
1.0
 40
1.0
 40
1.0
 10
0.7266117327679895
 20
0.7973204117406115
 30
0.0
 10
0.7067889125691194
 20
0.8383728009939276
 30
0.0
 10
0.6641330993980963
 20
0.8590540784341076
 30
0.0
 10
0.624963001321011
 20
0.8774349023160636
 30
0.0
  0
SPLINE
  5
63
  8
color#f69102ff
 62
256
370
-1
  6
BYLAYER
100
AcDbEntity
100
AcDbSpline
 70
8
 71
3
 72
8
 73
4
 74
0
 40
0.0
 40
0.0
 40
0.0
 40
0.0
 40
1.0
 40
1.0
 40
1.0
 40
1.0
 10
0.624963001321011
 20
0.8774349023160636
 30
0.0
 10
0.5562597320650426
 20
0.8532671270084291
 30
0.0
 10
0.4977133437363396
 20
0.7974943517066606
 30
0.0
 10
0.4870394985581946
 20
0.7230379217451318
 30
0.0
  0
SPLINE
  5
64
  8
color#f69102ff
 62
256
370
-1
  6
BYLAYER
100
AcDbEntity
100
AcDbSpline
 70
8
 71
3
 72
8
 73
4
 74
0
 40
0.0
 40
0.0
 40
0.0
 40
0.0
 40
1.0
 40
1.0
 40
1.0
 40
1.0
 10
0.4870394985581946
 20
0.7230379217451318
 30
0.0
 10
0.4583152213759865
 20
0.5529500210833668
 30
0.0
 10
0.4758693457984598
 20
0.3795645437300211
 30
0.0
 10
0.4713353409798201
 20
0.2079429110324775
 30
0.0
  0
SPLINE
  5
65
  8
color#f69102ff
 62
256
370
-1
  6
BYLAYER
100
AcDbEntity
100
AcDbSpline
 70
8
 71
3
 72
8
 73
4
 74
0
 40
0.0
 40
0.0
 40
0.0
 40
0.0
 40
1.0
 40
1.0
 40
1.0
 40
1.0
 10
0.4713353409798201
 20
0.2079429110324775
 30
0.0
 10
0.4723829207014029
 20
0.1744837723689352
 30
0.0
 10
0.4684279981771786
 20
0.1407821271389151
 30
0.0
 10
0.4585158704697563
 20
0.1088220433221093
 30
0.0
  0
SPLINE
  5
66
  8
color#f69102ff
 62
256
370
-1
  6
BYLAYER
100
AcDbEntity
100
AcDbSpline
 70
8
 71
3
 72
8
 73
4
 74
0
 40
0.0
 40
0.0
 40
0.0
 40
0.0
 40
1.0
 40
1.0
 40
1.0
 40
1.0
 10
0.4585158704697563
 20
0.1088220433221093
 30
0.0
 10
0.3519255802944895
 20
0.110725355610224
 30
0.0
 10
0.2453139257677599
 20
0.1108394278794855
 30
0.0
 10
0.1387134715197659
 20
0.1099376329049125
 30
0.0
  0
SPLINE
  5
67
  8
color#f69102ff
 62
256
370
-1
  6
BYLAYER
100
AcDbEntity
100
AcDbSpline
 70
8
 71
3
 72
8
 73
4
 74
0
 40
0.0
 40
0.0
 40
0.0
 40
0.0
 40
1.0
 40
1.0
 40
1.0
 40
1.0
 10
0.1387134715197659
 20
0.1099376329049125
 30
0.0
 10
0.1100010703180788
 20
0.1116914112345996
 30
0.0
 10
0.0800397059505027
 20
0.1119346766816306
 30
0.0
 10
0.0527677107752158
 20
0.12185590270969
 30
0.0
  0
SPLINE
  5
68
  8
color#f69102ff
 62
256
370
-1
  6
BYLAYER
100
AcDbEntity
100
AcDbSpline
 70
8
 71
3
 72
8
 73
4
 74
0
 40
0.0
 40
0.0
 40
0.0
 40
0.0
 40
1.0
 40
1.0
 40
1.0
 40
1.0
 10
0.0527677107752158
 20
0.12185590270969
 30
0.0
 10
0.043668767674597
 20
0.1496325316814629
 30
0.0
 10
0.0392061387162209
 20
0.1789053763273058
 30
0.0
 10
0.0396404838127564
 20
0.2081054026004233
 30
0.0
  0
SPLINE
  5
69
  8
color#f69102ff
 62
256
370
-1
  6
BYLAYER
100
AcDbEntity
100
AcDbSpline
 70
8
 71
3
 72
8
 73
4
 74
0
 40
0.0
 40
0.0
 40
0.0
 40
0.0
 40
1.0
 40
1.0
 40
1.0
 40
1.0
 10
0.0396404838127564
 20
0.2081054026004233
 30
0.0
 10
0.0412729397847015
 20
0.3517475786434786
 30
0.0
 10
0.039455317243082
 20
0.4954213686858798
 30
0.0
 10
0.0406773180538941
 20
0.6390438755826815
 30
0.0
  0
SPLINE
  5
6A
  8
color#f69102ff
 62
256
370
-1
  6
BYLAYER
100
AcDbEntity
100
AcDbSpline
 70
8
 71
3
 72
8
 73
4
 74
0
 40
0.0
 40
0.0
 40
0.0
 40
0.0
 40
1.0
 40
1.0
 40
1.0
 40
1.0
 10
0.0406773180538941
 20
0.6390438755826815
 30
0.0
 10
0.0547592331819767
 20
0.8108965265348327
 30
0.0
 10
0.1238364358010011
 20
0.9899767671083878
 30
0.0
 10
0.2669488479794506
 20
1.0946027133897007
 30
0.0
  0
SPLINE
  5
6B
  8
color#f69102ff
 62
256
370
-1
  6
BYLAYER
100
AcDbEntity
100
AcDbSpline
 70
8
 71
3
 72
8
 73
4
 74
0
 40
0.0
 40
0.0
 40
0.0
 40
0.0
 40
1.0
 40
1.0
 40
1.0
 40
1.0
 10
2.0491187661394887
 20
1.1438954366695875
 30
0.0
 10
2.1102848591351706
 20
1.1723103798489907
 30
0.0
 10
2.1676916437594271
 20
1.2171951360103579
 30
0.0
 10
2.2385794384866058
 20
1.2147476764503442
 30
0.0
  0
SPLINE
  5
6C
  8
color#f69102ff
 62
256
370
-1
  6
BYLAYER
100
AcDbEntity
100
AcDbSpline
 70
8
 71
3
 72
8
 73
4
 74
0
 40
0.0
 40
0.0
 40
0.0
 40
0.0
 40
1.0
 40
1.0
 40
1.0
 40
1.0
 10
2.2385794384866058
 20
1.2147476764503442
 30
0.0
 10
2.3540365829662977
 20
1.2349268494179038
 30
0.0
 10
2.4723878269634794
 20
1.2092438143933038
 30
0.0
 10
2.5784566084140486
 20
1.162168297991143
 30
0.0
  0
SPLINE
  5
6D
  8
color#f69102ff
 62
256
370
-1
  6
BYLAYER
100
AcDbEntity
100
AcDbSpline
 70
8
 71
3
 72
8
 73
4
 74
0
 40
0.0
 40
0.0
 40
0.0
 40
0.0
 40
1.0
 40
1.0
 40
1.0
 40
1.0
 10
2.5784566084140486
 20
1.162168297991143
 30
0.0
 10
2.7583691957509511
 20
1.0805873223532467
 30
0.0
 10
2.8905873662344015
 20
0.8970504068486471
 30
0.0
 10
2.9056097347568319
 20
0.6994461345322248
 30
0.0
  0
SPLINE
  5
6E
  8
color#f69102ff
 62
256
370
-1
  6
BYLAYER
100
AcDbEntity
100
AcDbSpline
 70
8
 71
3
 72
8
 73
4
 74
0
 40
0.0
 40
0.0
 40
0.0
 40
0.0
 40
1.0
 40
1.0
 40
1.0
 40
1.0
 10
2.9056097347568319
 20
0.6994461345322248
 30
0.0
 10
2.8034304210484171
 20
0.6846028373541826
 30
0.0
 10
2.7000047983420803
 20
0.6948423936986102
 30
0.0
 10
2.5972325981976234
 20
0.691626136061784
 30
0.0
  0
SPLINE
  5
6F
  8
color#f69102ff
 62
256
370
-1
  6
BYLAYER
100
AcDbEntity
100
AcDbSpline
 70
8
 71
3
 72
8
 73
4
 74
0
 40
0.0
 40
0.0
 40
0.0
 40
0.0
 40
1.0
 40
1.0
 40
1.0
 40
1.0
 10
2.5972325981976234
 20
0.691626136061784
 30
0.0
 10
2.5547854513615746
 20
0.6936809528234453
 30
0.0
 10
2.5085940367606834
 20
0.6840416704981271
 30
0.0
 10
2.469629236508414
 20
0.7053632141177509
 30
0.0
  0
SPLINE
  5
70
  8
color#f69102ff
 62
256
370
-1
  6
BYLAYER
100
AcDbEntity
100
AcDbSpline
 70
8
 71
3
 72
8
 73
4
 74
0
 40
0.0
 40
0.0
 40
0.0
 40
0.0
 40
1.0
 40
1.0
 40
1.0
 40
1.0
 10
2.469629236508414
 20
0.7053632141177509
 30
0.0
 10
2.4388897714212341
 20
0.767226036244658
 30
0.0
 10
2.4354464663231221
 20
0.8465048856315717
 30
0.0
 10
2.3764154943105589
 20
0.8913838249626389
 30
0.0
  0
SPLINE
  5
71
  8
color#f69102ff
 62
256
370
-1
  6
BYLAYER
100
AcDbEntity
100
AcDbSpline
 70
8
 71
3
 72
8
 73
4
 74
0
 40
0.0
 40
0.0
 40
0.0
 40
0.0
 40
1.0
 40
1.0
 40
1.0
 40
1.0
 10
2.3764154943105589
 20
0.8913838249626389
 30
0.0
 10
2.3392513339016836
 20
0.9234350865857858
 30
0.0
 10
2.2867241769518589
 20
0.8979592673925817
 30
0.0
 10
2.2604729646602055
 20
0.8645400465301988
 30
0.0
  0
SPLINE
  5
72
  8
color#f69102ff
 62
256
370
-1
  6
BYLAYER
100
AcDbEntity
100
AcDbSpline
 70
8
 71
3
 72
8
 73
4
 74
0
 40
0.0
 40
0.0
 40
0.0
 40
0.0
 40
1.0
 40
1.0
 40
1.0
 40
1.0
 10
2.2604729646602055
 20
0.8645400465301988
 30
0.0
 10
2.2083623977943216
 20
0.8018718322342338
 30
0.0
 10
2.2086373266180415
 20
0.7155067345733929
 30
0.0
 10
2.2045605192161166
 20
0.6384326425761431
 30
0.0
  0
SPLINE
  5
73
  8
color#f69102ff
 62
256
370
-1
  6
BYLAYER
100
AcDbEntity
100
AcDbSpline
 70
8
 71
3
 72
8
 73
4
 74
0
 40
0.0
 40
0.0
 40
0.0
 40
0.0
 40
1.0
 40
1.0
 40
1.0
 40
1.0
 10
2.2045605192161166
 20
0.6384326425761431
 30
0.0
 10
2.2130512097131882
 20
0.5674528427710726
 30
0.0
 10
2.2089115527150023
 20
0.4854544276226838
 30
0.0
 10
2.2639201489708629
 20
0.4311550737704781
 30
0.0
  0
SPLINE
  5
74
  8
color#f69102ff
 62
256
370
-1
  6
BYLAYER
100
AcDbEntity
100
AcDbSpline
 70
8
 71
3
 72
8
 73
4
 74
0
 40
0.0
 40
0.0
 40
0.0
 40
0.0
 40
1.0
 40
1.0
 40
1.0
 40
1.0
 10
2.2639201489708629
 20
0.4311550737704781
 30
0.0
 10
2.2910749995038269
 20
0.3967451175580192
 30
0.0
 10
2.3424603745327692
 20
0.399731732648268
 30
0.0
 10
2.3801329411350038
 20
0.4110223909840378
 30
0.0
  0
SPLINE
  5
75
  8
color#f69102ff
 62
256
370
-1
  6
BYLAYER
100
AcDbEntity
100
AcDbSpline
 70
8
 71
3
 72
8
 73
4
 74
0
 40
0.0
 40
0.0
 40
0.0
 40
0.0
 40
1.0
 40
1.0
 40
1.0
 40
1.0
 10
2.3801329411350038
 20
0.4110223909840378
 30
0.0
 10
2.4395106772526707
 20
0.4499044514255856
 30
0.0
 10
2.445587976227281
 20
0.5252935321441254
 30
0.0
 10
2.4709636575758718
 20
0.5853142990907508
 30
0.0
  0
SPLINE
  5
76
  8
color#f69102ff
 62
256
370
-1
  6
BYLAYER
100
AcDbEntity
100
AcDbSpline
 70
8
 71
3
 72
8
 73
4
 74
0
 40
0.0
 40
0.0
 40
0.0
 40
0.0
 40
1.0
 40
1.0
 40
1.0
 40
1.0
 10
2.4709636575758718
 20
0.5853142990907508
 30
0.0
 10
2.5018392699696013
 20
0.5988427760447969
 30
0.0
 10
2.5360790752436615
 20
0.6007261565183261
 30
0.0
 10
2.5693590329469504
 20
0.5993704941167429
 30
0.0
  0
SPLINE
  5
77
  8
color#f69102ff
 62
256
370
-1
  6
BYLAYER
100
AcDbEntity
100
AcDbSpline
 70
8
 71
3
 72
8
 73
4
 74
0
 40
0.0
 40
0.0
 40
0.0
 40
0.0
 40
1.0
 40
1.0
 40
1.0
 40
1.0
 10
2.5693590329469504
 20
0.5993704941167429
 30
0.0
 10
2.6801773037947187
 20
0.5957166112985645
 30
0.0
 10
2.7913181909700993
 20
0.6043707381043002
 30
0.0
 10
2.9017343116488434
 20
0.5914130311439002
 30
0.0
  0
SPLINE
  5
78
  8
color#f69102ff
 62
256
370
-1
  6
BYLAYER
100
AcDbEntity
100
AcDbSpline
 70
8
 71
3
 72
8
 73
4
 74
0
 40
0.0
 40
0.0
 40
0.0
 40
0.0
 40
1.0
 40
1.0
 40
1.0
 40
1.0
 10
2.9017343116488434
 20
0.5914130311439002
 30
0.0
 10
2.899457514822227
 20
0.4891447335238038
 30
0.0
 10
2.8558888898443135
 20
0.3933864226273843
 30
0.0
 10
2.802429002174605
 20
0.3080950077807779
 30
0.0
  0
SPLINE
  5
79
  8
color#f69102ff
 62
256
370
-1
  6
BYLAYER
100
AcDbEntity
100
AcDbSpline
 70
8
 71
3
 72
8
 73
4
 74
0
 40
0.0
 40
0.0
 40
0.0
 40
0.0
 40
1.0
 40
1.0
 40
1.0
 40
1.0
 10
2.802429002174605
 20
0.3080950077807779
 30
0.0
 10
2.6633035156886624
 20
0.1124616269807728
 30
0.0
 10
2.3933942840485152
 20
0.0151004550543112
 30
0.0
 10
2.1643361618278227
 20
0.0959539294527302
 30
0.0
  0
SPLINE
  5
7A
  8
color#f69102ff
 62
256
370
-1
  6
BYLAYER
100
AcDbEntity
100
AcDbSpline
 70
8
 71
3
 72
8
 73
4
 74
0
 40
0.0
 40
0.0
 40
0.0
 40
0.0
 40
1.0
 40
1.0
 40
1.0
 40
1.0
 10
2.1643361618278227
 20
0.0959539294527302
 30
0.0
 10
2.0188435761481993
 20
0.1383813576011402
 30
0.0
 10
1.896760996161158
 20
0.2466039182488186
 30
0.0
 10
1.8234237349749403
 20
0.3774988287109741
 30
0.0
  0
SPLINE
  5
7B
  8
color#f69102ff
 62
256
370
-1
  6
BYLAYER
100
AcDbEntity
100
AcDbSpline
 70
8
 71
3
 72
8
 73
4
 74
0
 40
0.0
 40
0.0
 40
0.0
 40
0.0
 40
1.0
 40
1.0
 40
1.0
 40
1.0
 10
1.8234237349749403
 20
0.3774988287109741
 30
0.0
 10
1.7948003154047838
 20
0.4478276526492385
 30
0.0
 10
1.770280102958586
 20
0.5209549656284036
 30
0.0
 10
1.7621288644078505
 20
0.5968173257727384
 30
0.0
  0
SPLINE
  5
7C
  8
color#f69102ff
 62
256
370
-1
  6
BYLAYER
100
AcDbEntity
100
AcDbSpline
 70
8
 71
3
 72
8
 73
4
 74
0
 40
0.0
 40
0.0
 40
0.0
 40
0.0
 40
1.0
 40
1.0
 40
1.0
 40
1.0
 10
1.7621288644078505
 20
0.5968173257727384
 30
0.0
 10
1.7450368328451515
 20
0.814078837079979
 30
0.0
 10
1.8584573529956814
 20
1.0364888435825486
 30
0.0
 10
2.0491187661394887
 20
1.1438954366695875
 30
0.0
  0
SPLINE
  5
7D
  8
color#f69102ff
 62
256
370
-1
  6
BYLAYER
100
AcDbEntity
100
AcDbSpline
 70
8
 71
3
 72
8
 73
4
 74
0
 40
0.0
 40
0.0
 40
0.0
 40
0.0
 40
1.0
 40
1.0
 40
1.0
 40
1.0
 10
3.5835063203677668
 20
1.1115642725528763
 30
0.0
 10
3.6351128344469696
 20
1.1909898680345523
 30
0.0
 10
3.7361839520158528
 20
1.2465585868285038
 30
0.0
 10
3.8313692311258505
 20
1.2192791460054753
 30
0.0
  0
SPLINE
  5
7E
  8
color#f69102ff
 62
256
370
-1
  6
BYLAYER
100
AcDbEntity
100
AcDbSpline
 70
8
 71
3
 72
8
 73
4
 74
0
 40
0.0
 40
0.0
 40
0.0
 40
0.0
 40
1.0
 40
1.0
 40
1.0
 40
1.0
 10
3.8313692311258505
 20
1.2192791460054753
 30
0.0
 10
3.9369613546114746
 20
1.2007090764746289
 30
0.0
 10
4.0153181878679973
 20
1.0919165731760831
 30
0.0
 10
4.0016230390327259
 20
0.9860484846107751
 30
0.0
  0
SPLINE
  5
7F
  8
color#f69102ff
 62
256
370
-1
  6
BYLAYER
100
AcDbEntity
100
AcDbSpline
 70
8
 71
3
 72
8
 73
4
 74
0
 40
0.0
 40
0.0
 40
0.0
 40
0.0
 40
1.0
 40
1.0
 40
1.0
 40
1.0
 10
4.0016230390327259
 20
0.9860484846107751
 30
0.0
 10
3.9864678490016949
 20
0.8830290202896187
 30
0.0
 10
3.9133635878486848
 20
0.8028852310582406
 30
0.0
 10
3.8711414473825285
 20
0.7105501951232551
 30
0.0
  0
SPLINE
  5
80
  8
color#f69102ff
 62
256
370
-1
  6
BYLAYER
100
AcDbEntity
100
AcDbSpline
 70
8
 71
3
 72
8
 73
4
 74
0
 40
0.0
 40
0.0
 40
0.0
 40
0.0
 40
1.0
 40
1.0
 40
1.0
 40
1.0
 10
3.8711414473825285
 20
0.7105501951232551
 30
0.0
 10
3.8518895431029487
 20
0.6653563854275438
 30
0.0
 10
3.8002844479781195
 20
0.6186690674289397
 30
0.0
 10
3.8289326428373625
 20
0.5666688129585624
 30
0.0
  0
SPLINE
  5
81
  8
color#f69102ff
 62
256
370
-1
  6
BYLAYER
100
AcDbEntity
100
AcDbSpline
 70
8
 71
3
 72
8
 73
4
 74
0
 40
0.0
 40
0.0
 40
0.0
 40
0.0
 40
1.0
 40
1.0
 40
1.0
 40
1.0
 10
3.8289326428373625
 20
0.5666688129585624
 30
0.0
 10
3.9048894076535117
 20
0.4502662697377524
 30
0.0
 10
3.9799972272900557
 20
0.3329904843927296
 30
0.0
 10
4.0612093264870763
 20
0.2203736247905174
 30
0.0
  0
SPLINE
  5
82
  8
color#f69102ff
 62
256
370
-1
  6
BYLAYER
100
AcDbEntity
100
AcDbSpline
 70
8
 71
3
 72
8
 73
4
 74
0
 40
0.0
 40
0.0
 40
0.0
 40
0.0
 40
1.0
 40
1.0
 40
1.0
 40
1.0
 10
4.0612093264870763
 20
0.2203736247905174
 30
0.0
 10
4.0652076059130797
 20
0.1677373318464422
 30
0.0
 10
4.0159178016623773
 20
0.1079915112340149
 30
0.0
 10
3.959123203005237
 20
0.1101890631047115
 30
0.0
  0
SPLINE
  5
83
  8
color#f69102ff
 62
256
370
-1
  6
BYLAYER
100
AcDbEntity
100
AcDbSpline
 70
8
 71
3
 72
8
 73
4
 74
0
 40
0.0
 40
0.0
 40
0.0
 40
0.0
 40
1.0
 40
1.0
 40
1.0
 40
1.0
 10
3.959123203005237
 20
0.1101890631047115
 30
0.0
 10
3.8536731532463699
 20
0.1129773789397917
 30
0.0
 10
3.7473475831192467
 20
0.1035077752175888
 30
0.0
 10
3.6425921679998976
 20
0.1174962212283583
 30
0.0
  0
SPLINE
  5
84
  8
color#f69102ff
 62
256
370
-1
  6
BYLAYER
100
AcDbEntity
100
AcDbSpline
 70
8
 71
3
 72
8
 73
4
 74
0
 40
0.0
 40
0.0
 40
0.0
 40
0.0
 40
1.0
 40
1.0
 40
1.0
 40
1.0
 10
3.6425921679998976
 20
0.1174962212283583
 30
0.0
 10
3.61790133051153
 20
0.1206637221469649
 30
0.0
 10
3.6065395968689162
 20
0.1458261382525949
 30
0.0
 10
3.592805322980245
 20
0.1631872820742946
 30
0.0
  0
SPLINE
  5
85
  8
color#f69102ff
 62
256
370
-1
  6
BYLAYER
100
AcDbEntity
100
AcDbSpline
 70
8
 71
3
 72
8
 73
4
 74
0
 40
0.0
 40
0.0
 40
0.0
 40
0.0
 40
1.0
 40
1.0
 40
1.0
 40
1.0
 10
3.592805322980245
 20
0.1631872820742946
 30
0.0
 10
3.5362445170561743
 20
0.2576064992282736
 30
0.0
 10
3.4691923623510705
 20
0.3453318039547567
 30
0.0
 10
3.4120668130213545
 20
0.4389935144566396
 30
0.0
  0
SPLINE
  5
86
  8
color#f69102ff
 62
256
370
-1
  6
BYLAYER
100
AcDbEntity
100
AcDbSpline
 70
8
 71
3
 72
8
 73
4
 74
0
 40
0.0
 40
0.0
 40
0.0
 40
0.0
 40
1.0
 40
1.0
 40
1.0
 40
1.0
 10
3.4120668130213545
 20
0.4389935144566396
 30
0.0
 10
3.3931229443248205
 20
0.3472187768503579
 30
0.0
 10
3.4168664922858629
 20
0.2493720232527941
 30
0.0
 10
3.4001472521694871
 20
0.1561769472305714
 30
0.0
  0
SPLINE
  5
87
  8
color#f69102ff
 62
256
370
-1
  6
BYLAYER
100
AcDbEntity
100
AcDbSpline
 70
8
 71
3
 72
8
 73
4
 74
0
 40
0.0
 40
0.0
 40
0.0
 40
0.0
 40
1.0
 40
1.0
 40
1.0
 40
1.0
 10
3.4001472521694871
 20
0.1561769472305714
 30
0.0
 10
3.4009065855386571
 20
0.1214998218037486
 30
0.0
 10
3.358306262098155
 20
0.1244975513225391
 30
0.0
 10
3.3337579606783003
 20
0.1212596337648155
 30
0.0
  0
SPLINE
  5
88
  8
color#f69102ff
 62
256
370
-1
  6
BYLAYER
100
AcDbEntity
100
AcDbSpline
 70
8
 71
3
 72
8
 73
4
 74
0
 40
0.0
 40
0.0
 40
0.0
 40
0.0
 40
1.0
 40
1.0
 40
1.0
 40
1.0
 10
3.3337579606783003
 20
0.1212596337648155
 30
0.0
 10
3.2083926499068021
 20
0.1224475759703753
 30
0.0
 10
3.0829183257249086
 20
0.1188466543994391
 30
0.0
 10
2.9576332144153858
 20
0.1241497519903848
 30
0.0
  0
SPLINE
  5
89
  8
color#f69102ff
 62
256
370
-1
  6
BYLAYER
100
AcDbEntity
100
AcDbSpline
 70
8
 71
3
 72
8
 73
4
 74
0
 40
0.0
 40
0.0
 40
0.0
 40
0.0
 40
1.0
 40
1.0
 40
1.0
 40
1.0
 10
2.9576332144153858
 20
0.1241497519903848
 30
0.0
 10
2.9569924521904936
 20
0.4208812394134872
 30
0.0
 10
2.9572818031848835
 20
0.7176636437005571
 30
0.0
 10
2.9572185525023102
 20
1.0143630927642782
 30
0.0
  0
SPLINE
  5
8A
  8
color#f69102ff
 62
256
370
-1
  6
BYLAYER
100
AcDbEntity
100
AcDbSpline
 70
8
 71
3
 72
8
 73
4
 74
0
 40
0.0
 40
0.0
 40
0.0
 40
0.0
 40
1.0
 40
1.0
 40
1.0
 40
1.0
 10
2.9572185525023102
 20
1.0143630927642782
 30
0.0
 10
2.9583580763399495
 20
1.1274455467715077
 30
0.0
 10
3.0721757039026167
 20
1.2155125075783189
 30
0.0
 10
3.1805995033946832
 20
1.2129595798297632
 30
0.0
  0
SPLINE
  5
8B
  8
color#f69102ff
 62
256
370
-1
  6
BYLAYER
100
AcDbEntity
100
AcDbSpline
 70
8
 71
3
 72
8
 73
4
 74
0
 40
0.0
 40
0.0
 40
0.0
 40
0.0
 40
1.0
 40
1.0
 40
1.0
 40
1.0
 10
3.1805995033946832
 20
1.2129595798297632
 30
0.0
 10
3.2679333294078208
 20
1.2165991625657802
 30
0.0
 10
3.3507837754781002
 20
1.1622745818052651
 30
0.0
 10
3.391444133909467
 20
1.0866656990262333
 30
0.0
  0
SPLINE
  5
8C
  8
color#f69102ff
 62
256
370
-1
  6
BYLAYER
100
AcDbEntity
100
AcDbSpline
 70
8
 71
3
 72
8
 73
4
 74
0
 40
0.0
 40
0.0
 40
0.0
 40
0.0
 40
1.0
 40
1.0
 40
1.0
 40
1.0
 10
3.391444133909467
 20
1.0866656990262333
 30
0.0
 10
3.4170015846322523
 20
0.9981526523767471
 30
0.0
 10
3.399527531989583
 20
0.9050360569757132
 30
0.0
 10
3.4083538251730996
 20
0.8145478583888881
 30
0.0
  0
SPLINE
  5
8D
  8
color#f69102ff
 62
256
370
-1
  6
BYLAYER
100
AcDbEntity
100
AcDbSpline
 70
8
 71
3
 72
8
 73
4
 74
0
 40
0.0
 40
0.0
 40
0.0
 40
0.0
 40
1.0
 40
1.0
 40
1.0
 40
1.0
 10
3.4083538251730996
 20
0.8145478583888881
 30
0.0
 10
3.4541599639633782
 20
0.8469537635764944
 30
0.0
 10
3.4670938206799962
 20
0.9047556482355734
 30
0.0
 10
3.4946195878286606
 20
0.9507100764715243
 30
0.0
  0
SPLINE
  5
8E
  8
color#f69102ff
 62
256
370
-1
  6
BYLAYER
100
AcDbEntity
100
AcDbSpline
 70
8
 71
3
 72
8
 73
4
 74
0
 40
0.0
 40
0.0
 40
0.0
 40
0.0
 40
1.0
 40
1.0
 40
1.0
 40
1.0
 10
3.4946195878286606
 20
0.9507100764715243
 30
0.0
 10
3.5249781716014232
 20
1.0039196221177631
 30
0.0
 10
3.55173083425806
 20
1.0591802346748977
 30
0.0
 10
3.5835063203677668
 20
1.1115642725528763
 30
0.0
  0
LINE
  5
8F
100
AcDbEntity
100
AcDbLine
  8
color#fefffeff
 62
256
370
-1
  6
BYLAYER
 10
0.0005692369762
 20
1.8194444444444444
 30
0.0
 11
4.0694444444444446
 21
1.8194444444444444
 31
0.0
  0
LINE
  5
90
100
AcDbEntity
100
AcDbLine
  8
color#fefffeff
 62
256
370
-1
  6
BYLAYER
 10
4.0694444444444446
 20
1.8194444444444444
 30
0.0
 11
4.0694444444444446
 21
0.0
 31
0.0
  0
LINE
  5
91
100
AcDbEntity
100
AcDbLine
  8
color#fefffeff
 62
256
370
-1
  6
BYLAYER
 10
4.0694444444444446
 20
0.0
 30
0.0
 11
0.0
 21
0.0
 31
0.0
  0
LINE
  5
92
100
AcDbEntity
100
AcDbLine
  8
color#fefffeff
 62
256
370
-1
  6
BYLAYER
 10
0.0
 20
0.0
 30
0.0
 11
0.0
 21
1.8167752648763302
 31
0.0
  0
SPLINE
  5
93
  8
color#fefffeff
 62
256
370
-1
  6
BYLAYER
100
AcDbEntity
100
AcDbSpline
 70
8
 71
3
 72
8
 73
4
 74
0
 40
0.0
 40
0.0
 40
0.0
 40
0.0
 40
1.0
 40
1.0
 40
1.0
 40
1.0
 10
0.0
 20
1.8167752648763302
 30
0.0
 10
0.00014230924405
 20
1.8174425597683588
 30
0.0
 10
0.00042692773215
 20
1.8187771495524159
 30
0.0
 10
0.0005692369762
 20
1.8194444444444444
 30
0.0
  0
SPLINE
  5
94
  8
color#fefffeff
 62
256
370
-1
  6
BYLAYER
100
AcDbEntity
100
AcDbSpline
 70
8
 71
3
 72
8
 73
4
 74
0
 40
0.0
 40
0.0
 40
0.0
 40
0.0
 40
1.0
 40
1.0
 40
1.0
 40
1.0
 10
1.3562196966315563
 20
1.7132442077861185
 30
0.0
 10
1.2771604591575316
 20
1.6575399115325864
 30
0.0
 10
1.2391066011010925
 20
1.5548712341516762
 30
0.0
 10
1.2508525861963391
 20
1.4607585726968066
 30
0.0
  0
SPLINE
  5
95
  8
color#fefffeff
 62
256
370
-1
  6
BYLAYER
100
AcDbEntity
100
AcDbSpline
 70
8
 71
3
 72
8
 73
4
 74
0
 40
0.0
 40
0.0
 40
0.0
 40
0.0
 40
1.0
 40
1.0
 40
1.0
 40
1.0
 10
1.2508525861963391
 20
1.4607585726968066
 30
0.0
 10
1.2644320204935691
 20
1.3725791787410859
 30
0.0
 10
1.34610491585334
 20
1.3236157265634405
 30
0.0
 10
1.4032115940129799
 20
1.2642125212462896
 30
0.0
  0
SPLINE
  5
96
  8
color#fefffeff
 62
256
370
-1
  6
BYLAYER
100
AcDbEntity
100
AcDbSpline
 70
8
 71
3
 72
8
 73
4
 74
0
 40
0.0
 40
0.0
 40
0.0
 40
0.0
 40
1.0
 40
1.0
 40
1.0
 40
1.0
 10
1.4032115940129799
 20
1.2642125212462896
 30
0.0
 10
1.4272456622332073
 20
1.2382454011812516
 30
0.0
 10
1.4586431248865712
 20
1.19949568574869
 30
0.0
 10
1.4339807104405491
 20
1.1641205618859343
 30
0.0
  0
SPLINE
  5
97
  8
color#fefffeff
 62
256
370
-1
  6
BYLAYER
100
AcDbEntity
100
AcDbSpline
 70
8
 71
3
 72
8
 73
4
 74
0
 40
0.0
 40
0.0
 40
0.0
 40
0.0
 40
1.0
 40
1.0
 40
1.0
 40
1.0
 10
1.4339807104405491
 20
1.1641205618859343
 30
0.0
 10
1.387069180964019
 20
1.0834820996522918
 30
0.0
 10
1.2797860408717929
 20
1.0343246960567447
 30
0.0
 10
1.2803404447188282
 20
0.9294838454994485
 30
0.0
  0
SPLINE
  5
98
  8
color#fefffeff
 62
256
370
-1
  6
BYLAYER
100
AcDbEntity
100
AcDbSpline
 70
8
 71
3
 72
8
 73
4
 74
0
 40
0.0
 40
0.0
 40
0.0
 40
0.0
 40
1.0
 40
1.0
 40
1.0
 40
1.0
 10
1.2803404447188282
 20
0.9294838454994485
 30
0.0
 10
1.2779681255605573
 20
0.6666285313608682
 30
0.0
 10
1.2810302589543687
 20
0.4036554347504529
 30
0.0
 10
1.279993684392295
 20
0.1407453107981807
 30
0.0
  0
SPLINE
  5
99
  8
color#fefffeff
 62
256
370
-1
  6
BYLAYER
100
AcDbEntity
100
AcDbSpline
 70
8
 71
3
 72
8
 73
4
 74
0
 40
0.0
 40
0.0
 40
0.0
 40
0.0
 40
1.0
 40
1.0
 40
1.0
 40
1.0
 10
1.279993684392295
 20
0.1407453107981807
 30
0.0
 10
1.4175393709805644
 20
0.1393779375090545
 30
0.0
 10
1.5551218551089749
 20
0.139054872305661
 30
0.0
 10
1.6926741274713095
 20
0.1406744702722911
 30
0.0
  0
SPLINE
  5
9A
  8
color#fefffeff
 62
256
370
-1
  6
BYLAYER
100
AcDbEntity
100
AcDbSpline
 70
8
 71
3
 72
8
 73
4
 74
0
 40
0.0
 40
0.0
 40
0.0
 40
0.0
 40
1.0
 40
1.0
 40
1.0
 40
1.0
 10
1.6926741274713095
 20
0.1406744702722911
 30
0.0
 10
1.6939102590333115
 20
0.3993550445347864
 30
0.0
 10
1.6939444972336817
 20
0.6580644705934428
 30
0.0
 10
1.6929265334890864
 20
0.9167415686937287
 30
0.0
  0
SPLINE
  5
9B
  8
color#fefffeff
 62
256
370
-1
  6
BYLAYER
100
AcDbEntity
100
AcDbSpline
 70
8
 71
3
 72
8
 73
4
 74
0
 40
0.0
 40
0.0
 40
0.0
 40
0.0
 40
1.0
 40
1.0
 40
1.0
 40
1.0
 10
1.6929265334890864
 20
0.9167415686937287
 30
0.0
 10
1.6952379179234689
 20
0.9963789165602016
 30
0.0
 10
1.6348513071451423
 20
1.0578783060523154
 30
0.0
 10
1.5819914906163284
 20
1.1097819844296817
 30
0.0
  0
SPLINE
  5
9C
  8
color#fefffeff
 62
256
370
-1
  6
BYLAYER
100
AcDbEntity
100
AcDbSpline
 70
8
 71
3
 72
8
 73
4
 74
0
 40
0.0
 40
0.0
 40
0.0
 40
0.0
 40
1.0
 40
1.0
 40
1.0
 40
1.0
 10
1.5819914906163284
 20
1.1097819844296817
 30
0.0
 10
1.5566829095067276
 20
1.1367460474827702
 30
0.0
 10
1.5185562720888317
 20
1.1651794453700408
 30
0.0
 10
1.525317486866421
 20
1.2068487140977098
 30
0.0
  0
SPLINE
  5
9D
  8
color#fefffeff
 62
256
370
-1
  6
BYLAYER
100
AcDbEntity
100
AcDbSpline
 70
8
 71
3
 72
8
 73
4
 74
0
 40
0.0
 40
0.0
 40
0.0
 40
0.0
 40
1.0
 40
1.0
 40
1.0
 40
1.0
 10
1.525317486866421
 20
1.2068487140977098
 30
0.0
 10
1.5361043240345902
 20
1.2405665851662702
 30
0.0
 10
1.5671342538041169
 20
1.2606413092442943
 30
0.0
 10
1.5908048564700472
 20
1.2847798557480219
 30
0.0
  0
SPLINE
  5
9E
  8
color#fefffeff
 62
256
370
-1
  6
BYLAYER
100
AcDbEntity
100
AcDbSpline
 70
8
 71
3
 72
8
 73
4
 74
0
 40
0.0
 40
0.0
 40
0.0
 40
0.0
 40
1.0
 40
1.0
 40
1.0
 40
1.0
 10
1.5908048564700472
 20
1.2847798557480219
 30
0.0
 10
1.683458916992383
 20
1.3627961961548507
 30
0.0
 10
1.7515245292806871
 20
1.4909800876351529
 30
0.0
 10
1.7097995811530382
 20
1.612838403575944
 30
0.0
  0
SPLINE
  5
9F
  8
color#fefffeff
 62
256
370
-1
  6
BYLAYER
100
AcDbEntity
100
AcDbSpline
 70
8
 71
3
 72
8
 73
4
 74
0
 40
0.0
 40
0.0
 40
0.0
 40
0.0
 40
1.0
 40
1.0
 40
1.0
 40
1.0
 10
1.7097995811530382
 20
1.612838403575944
 30
0.0
 10
1.6739715626153835
 20
1.6684610500857571
 30
0.0
 10
1.6248489011776164
 20
1.7232741030079912
 30
0.0
 10
1.5596521131412482
 20
1.7429355043327728
 30
0.0
  0
SPLINE
  5
A0
  8
color#fefffeff
 62
256
370
-1
  6
BYLAYER
100
AcDbEntity
100
AcDbSpline
 70
8
 71
3
 72
8
 73
4
 74
0
 40
0.0
 40
0.0
 40
0.0
 40
0.0
 40
1.0
 40
1.0
 40
1.0
 40
1.0
 10
1.5596521131412482
 20
1.7429355043327728
 30
0.0
 10
1.4917990158706198
 20
1.7486796180275126
 30
0.0
 10
1.4120789046281423
 20
1.7623862127446743
 30
0.0
 10
1.3562196966315563
 20
1.7132442077861185
 30
0.0
  0
SPLINE
  5
A1
  8
color#fefffeff
 62
256
370
-1
  6
BYLAYER
100
AcDbEntity
100
AcDbSpline
 70
8
 71
3
 72
8
 73
4
 74
0
 40
0.0
 40
0.0
 40
0.0
 40
0.0
 40
1.0
 40
1.0
 40
1.0
 40
1.0
 10
0.2669488479794506
 20
1.0946027133897007
 30
0.0
 10
0.1238364358010011
 20
0.9899767671083878
 30
0.0
 10
0.0547592331819767
 20
0.8108965265348327
 30
0.0
 10
0.0406773180538941
 20
0.6390438755826815
 30
0.0
  0
SPLINE
  5
A2
  8
color#fefffeff
 62
256
370
-1
  6
BYLAYER
100
AcDbEntity
100
AcDbSpline
 70
8
 71
3
 72
8
 73
4
 74
0
 40
0.0
 40
0.0
 40
0.0
 40
0.0
 40
1.0
 40
1.0
 40
1.0
 40
1.0
 10
0.0406773180538941
 20
0.6390438755826815
 30
0.0
 10
0.039455317243082
 20
0.4954213686858798
 30
0.0
 10
0.0412729397847015
 20
0.3517475786434786
 30
0.0
 10
0.0396404838127564
 20
0.2081054026004233
 30
0.0
  0
SPLINE
  5
A3
  8
color#fefffeff
 62
256
370
-1
  6
BYLAYER
100
AcDbEntity
100
AcDbSpline
 70
8
 71
3
 72
8
 73
4
 74
0
 40
0.0
 40
0.0
 40
0.0
 40
0.0
 40
1.0
 40
1.0
 40
1.0
 40
1.0
 10
0.0396404838127564
 20
0.2081054026004233
 30
0.0
 10
0.0392061387162209
 20
0.1789053763273058
 30
0.0
 10
0.043668767674597
 20
0.1496325316814629
 30
0.0
 10
0.0527677107752158
 20
0.12185590270969
 30
0.0
  0
SPLINE
  5
A4
  8
color#fefffeff
 62
256
370
-1
  6
BYLAYER
100
AcDbEntity
100
AcDbSpline
 70
8
 71
3
 72
8
 73
4
 74
0
 40
0.0
 40
0.0
 40
0.0
 40
0.0
 40
1.0
 40
1.0
 40
1.0
 40
1.0
 10
0.0527677107752158
 20
0.12185590270969
 30
0.0
 10
0.0800397059505027
 20
0.1119346766816306
 30
0.0
 10
0.1100010703180788
 20
0.1116914112345996
 30
0.0
 10
0.1387134715197659
 20
0.1099376329049125
 30
0.0
  0
SPLINE
  5
A5
  8
color#fefffeff
 62
256
370
-1
  6
BYLAYER
100
AcDbEntity
100
AcDbSpline
 70
8
 71
3
 72
8
 73
4
 74
0
 40
0.0
 40
0.0
 40
0.0
 40
0.0
 40
1.0
 40
1.0
 40
1.0
 40
1.0
 10
0.1387134715197659
 20
0.1099376329049125
 30
0.0
 10
0.2453139257677599
 20
0.1108394278794855
 30
0.0
 10
0.3519255802944895
 20
0.110725355610224
 30
0.0
 10
0.4585158704697563
 20
0.1088220433221093
 30
0.0
  0
SPLINE
  5
A6
  8
color#fefffeff
 62
256
370
-1
  6
BYLAYER
100
AcDbEntity
100
AcDbSpline
 70
8
 71
3
 72
8
 73
4
 74
0
 40
0.0
 40
0.0
 40
0.0
 40
0.0
 40
1.0
 40
1.0
 40
1.0
 40
1.0
 10
0.4585158704697563
 20
0.1088220433221093
 30
0.0
 10
0.4684279981771786
 20
0.1407821271389151
 30
0.0
 10
0.4723829207014029
 20
0.1744837723689352
 30
0.0
 10
0.4713353409798201
 20
0.2079429110324775
 30
0.0
  0
SPLINE
  5
A7
  8
color#fefffeff
 62
256
370
-1
  6
BYLAYER
100
AcDbEntity
100
AcDbSpline
 70
8
 71
3
 72
8
 73
4
 74
0
 40
0.0
 40
0.0
 40
0.0
 40
0.0
 40
1.0
 40
1.0
 40
1.0
 40
1.0
 10
0.4713353409798201
 20
0.2079429110324775
 30
0.0
 10
0.4758693457984598
 20
0.3795645437300211
 30
0.0
 10
0.4583152213759865
 20
0.5529500210833668
 30
0.0
 10
0.4870394985581946
 20
0.7230379217451318
 30
0.0
  0
SPLINE
  5
A8
  8
color#fefffeff
 62
256
370
-1
  6
BYLAYER
100
AcDbEntity
100
AcDbSpline
 70
8
 71
3
 72
8
 73
4
 74
0
 40
0.0
 40
0.0
 40
0.0
 40
0.0
 40
1.0
 40
1.0
 40
1.0
 40
1.0
 10
0.4870394985581946
 20
0.7230379217451318
 30
0.0
 10
0.4977133437363396
 20
0.7974943517066606
 30
0.0
 10
0.5562597320650426
 20
0.8532671270084291
 30
0.0
 10
0.624963001321011
 20
0.8774349023160636
 30
0.0
  0
SPLINE
  5
A9
  8
color#fefffeff
 62
256
370
-1
  6
BYLAYER
100
AcDbEntity
100
AcDbSpline
 70
8
 71
3
 72
8
 73
4
 74
0
 40
0.0
 40
0.0
 40
0.0
 40
0.0
 40
1.0
 40
1.0
 40
1.0
 40
1.0
 10
0.624963001321011
 20
0.8774349023160636
 30
0.0
 10
0.6641330993980963
 20
0.8590540784341076
 30
0.0
 10
0.7067889125691194
 20
0.8383728009939276
 30
0.0
 10
0.7266117327679895
 20
0.7973204117406115
 30
0.0
  0
SPLINE
  5
AA
  8
color#fefffeff
 62
256
370
-1
  6
BYLAYER
100
AcDbEntity
100
AcDbSpline
 70
8
 71
3
 72
8
 73
4
 74
0
 40
0.0
 40
0.0
 40
0.0
 40
0.0
 40
1.0
 40
1.0
 40
1.0
 40
1.0
 10
0.7266117327679895
 20
0.7973204117406115
 30
0.0
 10
0.7753146225746783
 20
0.7012485868270107
 30
0.0
 10
0.7663069978538295
 20
0.5903928370994404
 30
0.0
 10
0.7668435577507723
 20
0.4861020030157432
 30
0.0
  0
SPLINE
  5
AB
  8
color#fefffeff
 62
256
370
-1
  6
BYLAYER
100
AcDbEntity
100
AcDbSpline
 70
8
 71
3
 72
8
 73
4
 74
0
 40
0.0
 40
0.0
 40
0.0
 40
0.0
 40
1.0
 40
1.0
 40
1.0
 40
1.0
 10
0.7668435577507723
 20
0.4861020030157432
 30
0.0
 10
0.7681038049522915
 20
0.3675297306280443
 30
0.0
 10
0.7641943302937946
 20
0.2488726115430018
 30
0.0
 10
0.7691313863536411
 20
0.130357359189236
 30
0.0
  0
SPLINE
  5
AC
  8
color#fefffeff
 62
256
370
-1
  6
BYLAYER
100
AcDbEntity
100
AcDbSpline
 70
8
 71
3
 72
8
 73
4
 74
0
 40
0.0
 40
0.0
 40
0.0
 40
0.0
 40
1.0
 40
1.0
 40
1.0
 40
1.0
 10
0.7691313863536411
 20
0.130357359189236
 30
0.0
 10
0.8404838856792396
 20
0.1146697926972067
 30
0.0
 10
0.9137126506196218
 20
0.1230511183973088
 30
0.0
 10
0.9860552469241423
 20
0.1216266606258238
 30
0.0
  0
SPLINE
  5
AD
  8
color#fefffeff
 62
256
370
-1
  6
BYLAYER
100
AcDbEntity
100
AcDbSpline
 70
8
 71
3
 72
8
 73
4
 74
0
 40
0.0
 40
0.0
 40
0.0
 40
0.0
 40
1.0
 40
1.0
 40
1.0
 40
1.0
 10
0.9860552469241423
 20
0.1216266606258238
 30
0.0
 10
1.054527109787748
 20
0.1229636878299822
 30
0.0
 10
1.1236788946572949
 20
0.1160114356455879
 30
0.0
 10
1.1915034101689213
 20
0.1281778293031463
 30
0.0
  0
SPLINE
  5
AE
  8
color#fefffeff
 62
256
370
-1
  6
BYLAYER
100
AcDbEntity
100
AcDbSpline
 70
8
 71
3
 72
8
 73
4
 74
0
 40
0.0
 40
0.0
 40
0.0
 40
0.0
 40
1.0
 40
1.0
 40
1.0
 40
1.0
 10
1.1915034101689213
 20
0.1281778293031463
 30
0.0
 10
1.2057563525307979
 20
0.2839457880136376
 30
0.0
 10
1.1936483443672947
 20
0.44115431007445
 30
0.0
 10
1.1980937237836828
 20
0.5974261280730673
 30
0.0
  0
SPLINE
  5
AF
  8
color#fefffeff
 62
256
370
-1
  6
BYLAYER
100
AcDbEntity
100
AcDbSpline
 70
8
 71
3
 72
8
 73
4
 74
0
 40
0.0
 40
0.0
 40
0.0
 40
0.0
 40
1.0
 40
1.0
 40
1.0
 40
1.0
 10
1.1980937237836828
 20
0.5974261280730673
 30
0.0
 10
1.1939681490080287
 20
0.7172820586519407
 30
0.0
 10
1.1724323285583522
 20
0.8386974246145689
 30
0.0
 10
1.1115211541545673
 20
0.943677389964646
 30
0.0
  0
SPLINE
  5
B0
  8
color#fefffeff
 62
256
370
-1
  6
BYLAYER
100
AcDbEntity
100
AcDbSpline
 70
8
 71
3
 72
8
 73
4
 74
0
 40
0.0
 40
0.0
 40
0.0
 40
0.0
 40
1.0
 40
1.0
 40
1.0
 40
1.0
 10
1.1115211541545673
 20
0.943677389964646
 30
0.0
 10
1.0756434693339354
 20
1.0287604425577115
 30
0.0
 10
0.9951146935788536
 20
1.0798866750580727
 30
0.0
 10
0.9231034039758072
 20
1.1315403716278862
 30
0.0
  0
SPLINE
  5
B1
  8
color#fefffeff
 62
256
370
-1
  6
BYLAYER
100
AcDbEntity
100
AcDbSpline
 70
8
 71
3
 72
8
 73
4
 74
0
 40
0.0
 40
0.0
 40
0.0
 40
0.0
 40
1.0
 40
1.0
 40
1.0
 40
1.0
 10
0.9231034039758072
 20
1.1315403716278862
 30
0.0
 10
0.8323381583652321
 20
1.1957914955674103
 30
0.0
 10
0.7196585001801906
 20
1.2157983068407019
 30
0.0
 10
0.6110295981980537
 20
1.2239051089514132
 30
0.0
  0
SPLINE
  5
B2
  8
color#fefffeff
 62
256
370
-1
  6
BYLAYER
100
AcDbEntity
100
AcDbSpline
 70
8
 71
3
 72
8
 73
4
 74
0
 40
0.0
 40
0.0
 40
0.0
 40
0.0
 40
1.0
 40
1.0
 40
1.0
 40
1.0
 10
0.6110295981980537
 20
1.2239051089514132
 30
0.0
 10
0.4874300345504478
 20
1.2142718840955469
 30
0.0
 10
0.3624271313653167
 20
1.1764500368537401
 30
0.0
 10
0.2669488479794506
 20
1.0946027133897007
 30
0.0
  0
SPLINE
  5
B3
  8
color#fefffeff
 62
256
370
-1
  6
BYLAYER
100
AcDbEntity
100
AcDbSpline
 70
8
 71
3
 72
8
 73
4
 74
0
 40
0.0
 40
0.0
 40
0.0
 40
0.0
 40
1.0
 40
1.0
 40
1.0
 40
1.0
 10
2.0491187661394887
 20
1.1438954366695875
 30
0.0
 10
1.8584573529956814
 20
1.0364888435825486
 30
0.0
 10
1.7450368328451515
 20
0.814078837079979
 30
0.0
 10
1.7621288644078505
 20
0.5968173257727384
 30
0.0
  0
SPLINE
  5
B4
  8
color#fefffeff
 62
256
370
-1
  6
BYLAYER
100
AcDbEntity
100
AcDbSpline
 70
8
 71
3
 72
8
 73
4
 74
0
 40
0.0
 40
0.0
 40
0.0
 40
0.0
 40
1.0
 40
1.0
 40
1.0
 40
1.0
 10
1.7621288644078505
 20
0.5968173257727384
 30
0.0
 10
1.770280102958586
 20
0.5209549656284036
 30
0.0
 10
1.7948003154047838
 20
0.4478276526492385
 30
0.0
 10
1.8234237349749403
 20
0.3774988287109741
 30
0.0
  0
SPLINE
  5
B5
  8
color#fefffeff
 62
256
370
-1
  6
BYLAYER
100
AcDbEntity
100
AcDbSpline
 70
8
 71
3
 72
8
 73
4
 74
0
 40
0.0
 40
0.0
 40
0.0
 40
0.0
 40
1.0
 40
1.0
 40
1.0
 40
1.0
 10
1.8234237349749403
 20
0.3774988287109741
 30
0.0
 10
1.896760996161158
 20
0.2466039182488186
 30
0.0
 10
2.0188435761481993
 20
0.1383813576011402
 30
0.0
 10
2.1643361618278227
 20
0.0959539294527302
 30
0.0
  0
SPLINE
  5
B6
  8
color#fefffeff
 62
256
370
-1
  6
BYLAYER
100
AcDbEntity
100
AcDbSpline
 70
8
 71
3
 72
8
 73
4
 74
0
 40
0.0
 40
0.0
 40
0.0
 40
0.0
 40
1.0
 40
1.0
 40
1.0
 40
1.0
 10
2.1643361618278227
 20
0.0959539294527302
 30
0.0
 10
2.3933942840485152
 20
0.0151004550543112
 30
0.0
 10
2.6633035156886624
 20
0.1124616269807728
 30
0.0
 10
2.802429002174605
 20
0.3080950077807779
 30
0.0
  0
SPLINE
  5
B7
  8
color#fefffeff
 62
256
370
-1
  6
BYLAYER
100
AcDbEntity
100
AcDbSpline
 70
8
 71
3
 72
8
 73
4
 74
0
 40
0.0
 40
0.0
 40
0.0
 40
0.0
 40
1.0
 40
1.0
 40
1.0
 40
1.0
 10
2.802429002174605
 20
0.3080950077807779
 30
0.0
 10
2.8558888898443135
 20
0.3933864226273843
 30
0.0
 10
2.899457514822227
 20
0.4891447335238038
 30
0.0
 10
2.9017343116488434
 20
0.5914130311439002
 30
0.0
  0
SPLINE
  5
B8
  8
color#fefffeff
 62
256
370
-1
  6
BYLAYER
100
AcDbEntity
100
AcDbSpline
 70
8
 71
3
 72
8
 73
4
 74
0
 40
0.0
 40
0.0
 40
0.0
 40
0.0
 40
1.0
 40
1.0
 40
1.0
 40
1.0
 10
2.9017343116488434
 20
0.5914130311439002
 30
0.0
 10
2.7913181909700993
 20
0.6043707381043002
 30
0.0
 10
2.6801773037947187
 20
0.5957166112985645
 30
0.0
 10
2.5693590329469504
 20
0.5993704941167429
 30
0.0
  0
SPLINE
  5
B9
  8
color#fefffeff
 62
256
370
-1
  6
BYLAYER
100
AcDbEntity
100
AcDbSpline
 70
8
 71
3
 72
8
 73
4
 74
0
 40
0.0
 40
0.0
 40
0.0
 40
0.0
 40
1.0
 40
1.0
 40
1.0
 40
1.0
 10
2.5693590329469504
 20
0.5993704941167429
 30
0.0
 10
2.5360790752436615
 20
0.6007261565183261
 30
0.0
 10
2.5018392699696013
 20
0.5988427760447969
 30
0.0
 10
2.4709636575758718
 20
0.5853142990907508
 30
0.0
  0
SPLINE
  5
BA
  8
color#fefffeff
 62
256
370
-1
  6
BYLAYER
100
AcDbEntity
100
AcDbSpline
 70
8
 71
3
 72
8
 73
4
 74
0
 40
0.0
 40
0.0
 40
0.0
 40
0.0
 40
1.0
 40
1.0
 40
1.0
 40
1.0
 10
2.4709636575758718
 20
0.5853142990907508
 30
0.0
 10
2.445587976227281
 20
0.5252935321441254
 30
0.0
 10
2.4395106772526707
 20
0.4499044514255856
 30
0.0
 10
2.3801329411350038
 20
0.4110223909840378
 30
0.0
  0
SPLINE
  5
BB
  8
color#fefffeff
 62
256
370
-1
  6
BYLAYER
100
AcDbEntity
100
AcDbSpline
 70
8
 71
3
 72
8
 73
4
 74
0
 40
0.0
 40
0.0
 40
0.0
 40
0.0
 40
1.0
 40
1.0
 40
1.0
 40
1.0
 10
2.3801329411350038
 20
0.4110223909840378
 30
0.0
 10
2.3424603745327692
 20
0.399731732648268
 30
0.0
 10
2.2910749995038269
 20
0.3967451175580192
 30
0.0
 10
2.2639201489708629
 20
0.4311550737704781
 30
0.0
  0
SPLINE
  5
BC
  8
color#fefffeff
 62
256
370
-1
  6
BYLAYER
100
AcDbEntity
100
AcDbSpline
 70
8
 71
3
 72
8
 73
4
 74
0
 40
0.0
 40
0.0
 40
0.0
 40
0.0
 40
1.0
 40
1.0
 40
1.0
 40
1.0
 10
2.2639201489708629
 20
0.4311550737704781
 30
0.0
 10
2.2089115527150023
 20
0.4854544276226838
 30
0.0
 10
2.2130512097131882
 20
0.5674528427710726
 30
0.0
 10
2.2045605192161166
 20
0.6384326425761431
 30
0.0
  0
SPLINE
  5
BD
  8
color#fefffeff
 62
256
370
-1
  6
BYLAYER
100
AcDbEntity
100
AcDbSpline
 70
8
 71
3
 72
8
 73
4
 74
0
 40
0.0
 40
0.0
 40
0.0
 40
0.0
 40
1.0
 40
1.0
 40
1.0
 40
1.0
 10
2.2045605192161166
 20
0.6384326425761431
 30
0.0
 10
2.2086373266180415
 20
0.7155067345733929
 30
0.0
 10
2.2083623977943216
 20
0.8018718322342338
 30
0.0
 10
2.2604729646602055
 20
0.8645400465301988
 30
0.0
  0
SPLINE
  5
BE
  8
color#fefffeff
 62
256
370
-1
  6
BYLAYER
100
AcDbEntity
100
AcDbSpline
 70
8
 71
3
 72
8
 73
4
 74
0
 40
0.0
 40
0.0
 40
0.0
 40
0.0
 40
1.0
 40
1.0
 40
1.0
 40
1.0
 10
2.2604729646602055
 20
0.8645400465301988
 30
0.0
 10
2.2867241769518589
 20
0.8979592673925817
 30
0.0
 10
2.3392513339016836
 20
0.9234350865857858
 30
0.0
 10
2.3764154943105589
 20
0.8913838249626389
 30
0.0
  0
SPLINE
  5
BF
  8
color#fefffeff
 62
256
370
-1
  6
BYLAYER
100
AcDbEntity
100
AcDbSpline
 70
8
 71
3
 72
8
 73
4
 74
0
 40
0.0
 40
0.0
 40
0.0
 40
0.0
 40
1.0
 40
1.0
 40
1.0
 40
1.0
 10
2.3764154943105589
 20
0.8913838249626389
 30
0.0
 10
2.4354464663231221
 20
0.8465048856315717
 30
0.0
 10
2.4388897714212341
 20
0.767226036244658
 30
0.0
 10
2.469629236508414
 20
0.7053632141177509
 30
0.0
  0
SPLINE
  5
C0
  8
color#fefffeff
 62
256
370
-1
  6
BYLAYER
100
AcDbEntity
100
AcDbSpline
 70
8
 71
3
 72
8
 73
4
 74
0
 40
0.0
 40
0.0
 40
0.0
 40
0.0
 40
1.0
 40
1.0
 40
1.0
 40
1.0
 10
2.469629236508414
 20
0.7053632141177509
 30
0.0
 10
2.5085940367606834
 20
0.6840416704981271
 30
0.0
 10
2.5547854513615746
 20
0.6936809528234453
 30
0.0
 10
2.5972325981976234
 20
0.691626136061784
 30
0.0
  0
SPLINE
  5
C1
  8
color#fefffeff
 62
256
370
-1
  6
BYLAYER
100
AcDbEntity
100
AcDbSpline
 70
8
 71
3
 72
8
 73
4
 74
0
 40
0.0
 40
0.0
 40
0.0
 40
0.0
 40
1.0
 40
1.0
 40
1.0
 40
1.0
 10
2.5972325981976234
 20
0.691626136061784
 30
0.0
 10
2.7000047983420803
 20
0.6948423936986102
 30
0.0
 10
2.8034304210484171
 20
0.6846028373541826
 30
0.0
 10
2.9056097347568319
 20
0.6994461345322248
 30
0.0
  0
SPLINE
  5
C2
  8
color#fefffeff
 62
256
370
-1
  6
BYLAYER
100
AcDbEntity
100
AcDbSpline
 70
8
 71
3
 72
8
 73
4
 74
0
 40
0.0
 40
0.0
 40
0.0
 40
0.0
 40
1.0
 40
1.0
 40
1.0
 40
1.0
 10
2.9056097347568319
 20
0.6994461345322248
 30
0.0
 10
2.8905873662344015
 20
0.8970504068486471
 30
0.0
 10
2.7583691957509511
 20
1.0805873223532467
 30
0.0
 10
2.5784566084140486
 20
1.162168297991143
 30
0.0
  0
SPLINE
  5
C3
  8
color#fefffeff
 62
256
370
-1
  6
BYLAYER
100
AcDbEntity
100
AcDbSpline
 70
8
 71
3
 72
8
 73
4
 74
0
 40
0.0
 40
0.0
 40
0.0
 40
0.0
 40
1.0
 40
1.0
 40
1.0
 40
1.0
 10
2.5784566084140486
 20
1.162168297991143
 30
0.0
 10
2.4723878269634794
 20
1.2092438143933038
 30
0.0
 10
2.3540365829662977
 20
1.2349268494179038
 30
0.0
 10
2.2385794384866058
 20
1.2147476764503442
 30
0.0
  0
SPLINE
  5
C4
  8
color#fefffeff
 62
256
370
-1
  6
BYLAYER
100
AcDbEntity
100
AcDbSpline
 70
8
 71
3
 72
8
 73
4
 74
0
 40
0.0
 40
0.0
 40
0.0
 40
0.0
 40
1.0
 40
1.0
 40
1.0
 40
1.0
 10
2.2385794384866058
 20
1.2147476764503442
 30
0.0
 10
2.1676916437594271
 20
1.2171951360103579
 30
0.0
 10
2.1102848591351706
 20
1.1723103798489907
 30
0.0
 10
2.0491187661394887
 20
1.1438954366695875
 30
0.0
  0
SPLINE
  5
C5
  8
color#fefffeff
 62
256
370
-1
  6
BYLAYER
100
AcDbEntity
100
AcDbSpline
 70
8
 71
3
 72
8
 73
4
 74
0
 40
0.0
 40
0.0
 40
0.0
 40
0.0
 40
1.0
 40
1.0
 40
1.0
 40
1.0
 10
3.5835063203677668
 20
1.1115642725528763
 30
0.0
 10
3.55173083425806
 20
1.0591802346748977
 30
0.0
 10
3.5249781716014232
 20
1.0039196221177631
 30
0.0
 10
3.4946195878286606
 20
0.9507100764715243
 30
0.0
  0
SPLINE
  5
C6
  8
color#fefffeff
 62
256
370
-1
  6
BYLAYER
100
AcDbEntity
100
AcDbSpline
 70
8
 71
3
 72
8
 73
4
 74
0
 40
0.0
 40
0.0
 40
0.0
 40
0.0
 40
1.0
 40
1.0
 40
1.0
 40
1.0
 10
3.4946195878286606
 20
0.9507100764715243
 30
0.0
 10
3.4670938206799962
 20
0.9047556482355734
 30
0.0
 10
3.4541599639633782
 20
0.8469537635764944
 30
0.0
 10
3.4083538251730996
 20
0.8145478583888881
 30
0.0
  0
SPLINE
  5
C7
  8
color#fefffeff
 62
256
370
-1
  6
BYLAYER
100
AcDbEntity
100
AcDbSpline
 70
8
 71
3
 72
8
 73
4
 74
0
 40
0.0
 40
0.0
 40
0.0
 40
0.0
 40
1.0
 40
1.0
 40
1.0
 40
1.0
 10
3.4083538251730996
 20
0.8145478583888881
 30
0.0
 10
3.399527531989583
 20
0.9050360569757132
 30
0.0
 10
3.4170015846322523
 20
0.9981526523767471
 30
0.0
 10
3.391444133909467
 20
1.0866656990262333
 30
0.0
  0
SPLINE
  5
C8
  8
color#fefffeff
 62
256
370
-1
  6
BYLAYER
100
AcDbEntity
100
AcDbSpline
 70
8
 71
3
 72
8
 73
4
 74
0
 40
0.0
 40
0.0
 40
0.0
 40
0.0
 40
1.0
 40
1.0
 40
1.0
 40
1.0
 10
3.391444133909467
 20
1.0866656990262333
 30
0.0
 10
3.3507837754781002
 20
1.1622745818052651
 30
0.0
 10
3.2679333294078208
 20
1.2165991625657802
 30
0.0
 10
3.1805995033946832
 20
1.2129595798297632
 30
0.0
  0
SPLINE
  5
C9
  8
color#fefffeff
 62
256
370
-1
  6
BYLAYER
100
AcDbEntity
100
AcDbSpline
 70
8
 71
3
 72
8
 73
4
 74
0
 40
0.0
 40
0.0
 40
0.0
 40
0.0
 40
1.0
 40
1.0
 40
1.0
 40
1.0
 10
3.1805995033946832
 20
1.2129595798297632
 30
0.0
 10
3.0721757039026167
 20
1.2155125075783189
 30
0.0
 10
2.9583580763399495
 20
1.1274455467715077
 30
0.0
 10
2.9572185525023102
 20
1.0143630927642782
 30
0.0
  0
SPLINE
  5
CA
  8
color#fefffeff
 62
256
370
-1
  6
BYLAYER
100
AcDbEntity
100
AcDbSpline
 70
8
 71
3
 72
8
 73
4
 74
0
 40
0.0
 40
0.0
 40
0.0
 40
0.0
 40
1.0
 40
1.0
 40
1.0
 40
1.0
 10
2.9572185525023102
 20
1.0143630927642782
 30
0.0
 10
2.9572818031848835
 20
0.7176636437005571
 30
0.0
 10
2.9569924521904936
 20
0.4208812394134872
 30
0.0
 10
2.9576332144153858
 20
0.1241497519903848
 30
0.0
  0
SPLINE
  5
CB
  8
color#fefffeff
 62
256
370
-1
  6
BYLAYER
100
AcDbEntity
100
AcDbSpline
 70
8
 71
3
 72
8
 73
4
 74
0
 40
0.0
 40
0.0
 40
0.0
 40
0.0
 40
1.0
 40
1.0
 40
1.0
 40
1.0
 10
2.9576332144153858
 20
0.1241497519903848
 30
0.0
 10
3.0829183257249086
 20
0.1188466543994391
 30
0.0
 10
3.2083926499068021
 20
0.1224475759703753
 30
0.0
 10
3.3337579606783003
 20
0.1212596337648155
 30
0.0
  0
SPLINE
  5
CC
  8
color#fefffeff
 62
256
370
-1
  6
BYLAYER
100
AcDbEntity
100
AcDbSpline
 70
8
 71
3
 72
8
 73
4
 74
0
 40
0.0
 40
0.0
 40
0.0
 40
0.0
 40
1.0
 40
1.0
 40
1.0
 40
1.0
 10
3.3337579606783003
 20
0.1212596337648155
 30
0.0
 10
3.358306262098155
 20
0.1244975513225391
 30
0.0
 10
3.4009065855386571
 20
0.1214998218037486
 30
0.0
 10
3.4001472521694871
 20
0.1561769472305714
 30
0.0
  0
SPLINE
  5
CD
  8
color#fefffeff
 62
256
370
-1
  6
BYLAYER
100
AcDbEntity
100
AcDbSpline
 70
8
 71
3
 72
8
 73
4
 74
0
 40
0.0
 40
0.0
 40
0.0
 40
0.0
 40
1.0
 40
1.0
 40
1.0
 40
1.0
 10
3.4001472521694871
 20
0.1561769472305714
 30
0.0
 10
3.4168664922858629
 20
0.2493720232527941
 30
0.0
 10
3.3931229443248205
 20
0.3472187768503579
 30
0.0
 10
3.4120668130213545
 20
0.4389935144566396
 30
0.0
  0
SPLINE
  5
CE
  8
color#fefffeff
 62
256
370
-1
  6
BYLAYER
100
AcDbEntity
100
AcDbSpline
 70
8
 71
3
 72
8
 73
4
 74
0
 40
0.0
 40
0.0
 40
0.0
 40
0.0
 40
1.0
 40
1.0
 40
1.0
 40
1.0
 10
3.4120668130213545
 20
0.4389935144566396
 30
0.0
 10
3.4691923623510705
 20
0.3453318039547567
 30
0.0
 10
3.5362445170561743
 20
0.2576064992282736
 30
0.0
 10
3.592805322980245
 20
0.1631872820742946
 30
0.0
  0
SPLINE
  5
CF
  8
color#fefffeff
 62
256
370
-1
  6
BYLAYER
100
AcDbEntity
100
AcDbSpline
 70
8
 71
3
 72
8
 73
4
 74
0
 40
0.0
 40
0.0
 40
0.0
 40
0.0
 40
1.0
 40
1.0
 40
1.0
 40
1.0
 10
3.592805322980245
 20
0.1631872820742946
 30
0.0
 10
3.6065395968689162
 20
0.1458261382525949
 30
0.0
 10
3.61790133051153
 20
0.1206637221469649
 30
0.0
 10
3.6425921679998976
 20
0.1174962212283583
 30
0.0
  0
SPLINE
  5
D0
  8
color#fefffeff
 62
256
370
-1
  6
BYLAYER
100
AcDbEntity
100
AcDbSpline
 70
8
 71
3
 72
8
 73
4
 74
0
 40
0.0
 40
0.0
 40
0.0
 40
0.0
 40
1.0
 40
1.0
 40
1.0
 40
1.0
 10
3.6425921679998976
 20
0.1174962212283583
 30
0.0
 10
3.7473475831192467
 20
0.1035077752175888
 30
0.0
 10
3.8536731532463699
 20
0.1129773789397917
 30
0.0
 10
3.959123203005237
 20
0.1101890631047115
 30
0.0
  0
SPLINE
  5
D1
  8
color#fefffeff
 62
256
370
-1
  6
BYLAYER
100
AcDbEntity
100
AcDbSpline
 70
8
 71
3
 72
8
 73
4
 74
0
 40
0.0
 40
0.0
 40
0.0
 40
0.0
 40
1.0
 40
1.0
 40
1.0
 40
1.0
 10
3.959123203005237
 20
0.1101890631047115
 30
0.0
 10
4.0159178016623773
 20
0.1079915112340149
 30
0.0
 10
4.0652076059130797
 20
0.1677373318464422
 30
0.0
 10
4.0612093264870763
 20
0.2203736247905174
 30
0.0
  0
SPLINE
  5
D2
  8
color#fefffeff
 62
256
370
-1
  6
BYLAYER
100
AcDbEntity
100
AcDbSpline
 70
8
 71
3
 72
8
 73
4
 74
0
 40
0.0
 40
0.0
 40
0.0
 40
0.0
 40
1.0
 40
1.0
 40
1.0
 40
1.0
 10
4.0612093264870763
 20
0.2203736247905174
 30
0.0
 10
3.9799972272900557
 20
0.3329904843927296
 30
0.0
 10
3.9048894076535117
 20
0.4502662697377524
 30
0.0
 10
3.8289326428373625
 20
0.5666688129585624
 30
0.0
  0
SPLINE
  5
D3
  8
color#fefffeff
 62
256
370
-1
  6
BYLAYER
100
AcDbEntity
100
AcDbSpline
 70
8
 71
3
 72
8
 73
4
 74
0
 40
0.0
 40
0.0
 40
0.0
 40
0.0
 40
1.0
 40
1.0
 40
1.0
 40
1.0
 10
3.8289326428373625
 20
0.5666688129585624
 30
0.0
 10
3.8002844479781195
 20
0.6186690674289397
 30
0.0
 10
3.8518895431029487
 20
0.6653563854275438
 30
0.0
 10
3.8711414473825285
 20
0.7105501951232551
 30
0.0
  0
SPLINE
  5
D4
  8
color#fefffeff
 62
256
370
-1
  6
BYLAYER
100
AcDbEntity
100
AcDbSpline
 70
8
 71
3
 72
8
 73
4
 74
0
 40
0.0
 40
0.0
 40
0.0
 40
0.0
 40
1.0
 40
1.0
 40
1.0
 40
1.0
 10
3.8711414473825285
 20
0.7105501951232551
 30
0.0
 10
3.9133635878486848
 20
0.8028852310582406
 30
0.0
 10
3.9864678490016949
 20
0.8830290202896187
 30
0.0
 10
4.0016230390327259
 20
0.9860484846107751
 30
0.0
  0
SPLINE
  5
D5
  8
color#fefffeff
 62
256
370
-1
  6
BYLAYER
100
AcDbEntity
100
AcDbSpline
 70
8
 71
3
 72
8
 73
4
 74
0
 40
0.0
 40
0.0
 40
0.0
 40
0.0
 40
1.0
 40
1.0
 40
1.0
 40
1.0
 10
4.0016230390327259
 20
0.9860484846107751
 30
0.0
 10
4.0153181878679973
 20
1.0919165731760831
 30
0.0
 10
3.9369613546114746
 20
1.2007090764746289
 30
0.0
 10
3.8313692311258505
 20
1.2192791460054753
 30
0.0
  0
SPLINE
  5
D6
  8
color#fefffeff
 62
256
370
-1
  6
BYLAYER
100
AcDbEntity
100
AcDbSpline
 70
8
 71
3
 72
8
 73
4
 74
0
 40
0.0
 40
0.0
 40
0.0
 40
0.0
 40
1.0
 40
1.0
 40
1.0
 40
1.0
 10
3.8313692311258505
 20
1.2192791460054753
 30
0.0
 10
3.7361839520158528
 20
1.2465585868285038
 30
0.0
 10
3.6351128344469696
 20
1.1909898680345523
 30
0.0
 10
3.5835063203677668
 20
1.1115642725528763
 30
0.0
  0
ENDSEC
  0
SECTION
  2
OBJECTS
  0
DICTIONARY
  5
C
100
AcDbDictionary
280
0
281
1
  3
ACAD_GROUP
350
D
  3
ACAD_LAYOUT
350
1A
  3
ACAD_MLINESTYLE
350
17
  3
ACAD_PLOTSETTINGS
350
19
  3
ACAD_PLOTSTYLENAME
350
E
  3
AcDbVariableDictionary
350
D7
  0
DICTIONARY
  5
D
100
AcDbDictionary
280
0
281
1
  0
ACDBDICTIONARYWDFLT
  5
E
100
AcDbDictionary
281
1
  3
Normal
350
F
100
AcDbDictionaryWithDefault
340
F
  0
ACDBPLACEHOLDER
  5
F
  0
DICTIONARY
  5
17
100
AcDbDictionary
280
0
281
1
  3
Standard
350
18
  0
MLINESTYLE
  5
18
100
AcDbMlineStyle
  2
STANDARD
 70
0
  3

 62
256
 51
90.0
 52
90.0
 71
2
 49
0.5
 62
256
  6
BYLAYER
 49
-0.5
 62
256
  6
BYLAYER
  0
DICTIONARY
  5
19
100
AcDbDictionary
280
0
281
1
  0
DICTIONARY
  5
1A
100
AcDbDictionary
281
1
  3
Layout1
350
1E
  3
Layout2
350
26
  3
Model
350
22
  0
LAYOUT
  5
1E
100
AcDbPlotSettings
  1

  2
C:\Program Files\AutoCAD 2002\plotters\DWF ePlot (optimized for plotting).pc3
  4

  6

 40
0.0
 41
0.0
 42
0.0
 43
0.0
 44
0.0
 45
0.0
 46
0.0
 47
0.0
 48
0.0
 49
0.0
140
0.0
141
0.0
142
1.0
143
1.0
 70
688
 72
0
 73
0
 74
5
  7

 75
16
147
1.0
148
0.0
149
0.0
100
AcDbLayout
  1
Layout1
 70
1
 71
1
 10
0.0
 20
0.0
 11
420.0
 21
297.0
 12
0.0
 22
0.0
 32
0.0
 14
100000000000000000000.0
 24
100000000000000000000.0
 34
100000000000000000000.0
 15
-100000000000000000000.0
 25
-100000000000000000000.0
 35
-100000000000000000000.0
146
0.0
 13
0.0
 23
0.0
 33
0.0
 16
1.0
 26
0.0
 36
0.0
 17
0.0
 27
1.0
 37
0.0
 76
0
330
1B
  0
LAYOUT
  5
22
100
AcDbPlotSettings
  1

  2
C:\Program Files\AutoCAD 2002\plotters\DWF ePlot (optimized for plotting).pc3
  4

  6

 40
0.0
 41
0.0
 42
0.0
 43
0.0
 44
0.0
 45
0.0
 46
0.0
 47
0.0
 48
0.0
 49
0.0
140
0.0
141
0.0
142
1.0
143
1.0
 70
1712
 72
0
 73
0
 74
0
  7

 75
0
147
1.0
148
0.0
149
0.0
100
AcDbLayout
  1
Model
 70
1
 71
0
 10
0.0
 20
0.0
 11
12.0
 21
9.0
 12
0.0
 22
0.0
 32
0.0
 14
0.0
 24
0.0
 34
0.0
 15
0.0
 25
0.0
 35
0.0
146
0.0
 13
0.0
 23
0.0
 33
0.0
 16
1.0
 26
0.0
 36
0.0
 17
0.0
 27
1.0
 37
0.0
 76
0
330
1F
  0
LAYOUT
  5
26
100
AcDbPlotSettings
  1

  2
C:\Program Files\AutoCAD 2002\plotters\DWF ePlot (optimized for plotting).pc3
  4

  6

 40
0.0
 41
0.0
 42
0.0
 43
0.0
 44
0.0
 45
0.0
 46
0.0
 47
0.0
 48
0.0
 49
0.0
140
0.0
141
0.0
142
1.0
143
1.0
 70
688
 72
0
 73
0
 74
5
  7

 75
16
147
1.0
148
0.0
149
0.0
100
AcDbLayout
  1
Layout2
 70
1
 71
2
 10
0.0
 20
0.0
 11
12.0
 21
9.0
 12
0.0
 22
0.0
 32
0.0
 14
0.0
 24
0.0
 34
0.0
 15
0.0
 25
0.0
 35
0.0
146
0.0
 13
0.0
 23
0.0
 33
0.0
 16
1.0
 26
0.0
 36
0.0
 17
0.0
 27
1.0
 37
0.0
 76
0
330
23
  0
DICTIONARY
  5
D7
100
AcDbDictionary
281
1
  3
DIMASSOC
350
D9
  3
HIDETEXT
350
D8
  0
DICTIONARYVAR
  5
D8
100
DictionaryVariables
280
0
  1
2
  0
DICTIONARYVAR
  5
D9
100
DictionaryVariables
280
0
  1
1
  0
ENDSEC
  0
EOF
