ISO-10303-21;
HEADER;
FILE_DESCRIPTION (( 'STEP AP203' ),
    '1' );
FILE_NAME ('Rubber Strip Flat Part by Tommy.STEP',
    '2014-02-25T17:25:47',
    ( '' ),
    ( '' ),
    'SwSTEP 2.0',
    'SolidWorks 2013',
    '' );
FILE_SCHEMA (( 'CONFIG_CONTROL_DESIGN' ));
ENDSEC;

DATA;
#1 = AXIS2_PLACEMENT_3D ( 'NONE', #23, #146, #47 ) ;
#2 = EDGE_CURVE ( 'NONE', #57, #32, #172, .T. ) ;
#3 = PLANE ( 'NONE',  #7 ) ;
#4 = PERSON ( 'UNSPECIFIED', 'UNSPECIFIED', 'UNSPECIFIED', ('UNSPECIFIED'), ('UNSPECIFIED'), ('UNSPECIFIED') ) ;
#5 = DIRECTION ( 'NONE',  ( 0.2414229832848594200, -0.9703975072570815200, -0.006604623462463052700 ) ) ;
#6 = EDGE_LOOP ( 'NONE', ( #109, #198, #179, #67 ) ) ;
#7 = AXIS2_PLACEMENT_3D ( 'NONE', #175, #95, #233 ) ;
#8 = CALENDAR_DATE ( 2014, 25, 2 ) ;
#9 = DIRECTION ( 'NONE',  ( 0.2414229832848611100, -0.9703975072570811800, -0.006604623462463096900 ) ) ;
#10 = CARTESIAN_POINT ( 'NONE',  ( 0.0003266580924488323000, 32.11698025126897700, 0.01194553450077618000 ) ) ;
#11 = ORIENTED_EDGE ( 'NONE', *, *, #150, .F. ) ;
#12 = AXIS2_PLACEMENT_3D ( 'NONE', #237, #157, #54 ) ;
#13 = CARTESIAN_POINT ( 'NONE',  ( -6.224630853622540100, 0.6095644288519704900, 0.1941965524687104800 ) ) ;
#14 = DIRECTION ( 'NONE',  ( -0.02734683036293325500, -9.774348024824590000E-017, -0.9996260054986069200 ) ) ;
#15 = AXIS2_PLACEMENT_3D ( 'NONE', #59, #24, #185 ) ;
#16 = SECURITY_CLASSIFICATION_LEVEL ( 'unclassified' ) ;
#17 = EDGE_CURVE ( 'NONE', #46, #19, #75, .T. ) ;
#18 = CIRCLE ( 'NONE', #231, 32.11698025126897700 ) ;
#19 = VERTEX_POINT ( 'NONE', #86 ) ;
#20 = ADVANCED_FACE ( 'NONE', ( #227 ), #112, .T. ) ;
#21 = SHAPE_DEFINITION_REPRESENTATION ( #154, #49 ) ;
#22 = PERSON_AND_ORGANIZATION ( #4, #137 ) ;
#23 = CARTESIAN_POINT ( 'NONE',  ( 0.0006534527152854911100, 32.11698025126897700, 0.02389106526648564200 ) ) ;
#24 = DIRECTION ( 'NONE',  ( 0.02734683036293332500, -1.884424186906098900E-018, 0.9996260054986069200 ) ) ;
#25 = CIRCLE ( 'NONE', #15, 5.000000000000001800 ) ;
#26 = VECTOR ( 'NONE', #188, 39.37007874015748900 ) ;
#27 = LINE ( 'NONE', #82, #230 ) ;
#28 = CC_DESIGN_APPROVAL ( #184, ( #123 ) ) ;
#29 = CC_DESIGN_PERSON_AND_ORGANIZATION_ASSIGNMENT ( #174, #142, ( #123 ) ) ;
#30 = PERSON_AND_ORGANIZATION ( #4, #137 ) ;
#31 = CARTESIAN_POINT ( 'NONE',  ( 3.848159681476277500, -2.169311308410249800, -0.1052743420438701800 ) ) ;
#32 = VERTEX_POINT ( 'NONE', #111 ) ;
#33 = EDGE_CURVE ( 'NONE', #204, #46, #159, .T. ) ;
#34 = PERSON_AND_ORGANIZATION ( #4, #137 ) ;
#35 = PERSON_AND_ORGANIZATION ( #4, #137 ) ;
#36 = DATE_AND_TIME ( #84, #134 ) ;
#37 = CC_DESIGN_PERSON_AND_ORGANIZATION_ASSIGNMENT ( #35, #249, ( #144 ) ) ;
#38 = APPLICATION_CONTEXT ( 'configuration controlled 3d designs of mechanical parts and assemblies' ) ;
#39 = MECHANICAL_CONTEXT ( 'NONE', #38, 'mechanical' ) ;
#40 = DATE_TIME_ROLE ( 'classification_date' ) ;
#41 = PERSON_AND_ORGANIZATION_ROLE ( 'design_owner' ) ;
#42 = COORDINATED_UNIVERSAL_TIME_OFFSET ( 8, 0, .BEHIND. ) ;
#43 = PERSON_AND_ORGANIZATION ( #4, #137 ) ;
#44 = ADVANCED_FACE ( 'NONE', ( #217 ), #3, .F. ) ;
#45 = EDGE_LOOP ( 'NONE', ( #148, #63, #116, #98 ) ) ;
#46 = VERTEX_POINT ( 'NONE', #236 ) ;
#47 = DIRECTION ( 'NONE',  ( 0.2414229832848610900, -0.9703975072570809600, -0.006604623462463094300 ) ) ;
#48 = EDGE_CURVE ( 'NONE', #94, #91, #25, .T. ) ;
#49 = SHAPE_REPRESENTATION ( 'Rubber Strip Flat Part by Tommy', ( #135 ), #242 ) ;
#50 = ORIENTED_EDGE ( 'NONE', *, *, #183, .T. ) ;
#51 = CC_DESIGN_DATE_AND_TIME_ASSIGNMENT ( #80, #40, ( #123 ) ) ;
#52 =( CONVERSION_BASED_UNIT ( 'INCH', #110 ) LENGTH_UNIT ( ) NAMED_UNIT ( #77 ) );
#53 = APPROVAL_ROLE ( '' ) ;
#54 = DIRECTION ( 'NONE',  ( 0.2414229832848612000, -0.9703975072570811800, -0.006604623462462985900 ) ) ;
#55 = APPLICATION_PROTOCOL_DEFINITION ( 'international standard', 'config_control_design', 1994, #158 ) ;
#56 = EDGE_CURVE ( 'NONE', #46, #32, #18, .T. ) ;
#57 = VERTEX_POINT ( 'NONE', #168 ) ;
#58 = EDGE_CURVE ( 'NONE', #57, #19, #125, .T. ) ;
#59 = CARTESIAN_POINT ( 'NONE',  ( -2.171566166142299800, -2.316246959087510800, 0.08331661152196621900 ) ) ;
#60 = CARTESIAN_POINT ( 'NONE',  ( -2.171566166142299800, -2.316246959087510800, 0.08331661152196621900 ) ) ;
#61 = EDGE_LOOP ( 'NONE', ( #213, #241, #162, #143 ) ) ;
#62 = UNCERTAINTY_MEASURE_WITH_UNIT (LENGTH_MEASURE( 1.000000000000000100E-005 ), #52, 'distance_accuracy_value', 'NONE');
#63 = ORIENTED_EDGE ( 'NONE', *, *, #101, .T. ) ;
#64 = CARTESIAN_POINT ( 'NONE',  ( -2.172219755387974500, -2.316246959087510800, 0.05942554999054838100 ) ) ;
#65 = DIRECTION ( 'NONE',  ( -0.2414229832848611400, 0.9703975072570810700, 0.006604623462462929500 ) ) ;
#66 = VECTOR ( 'NONE', #147, 39.37007874015748900 ) ;
#67 = ORIENTED_EDGE ( 'NONE', *, *, #58, .F. ) ;
#68 =( NAMED_UNIT ( * ) SI_UNIT ( $, .STERADIAN. ) SOLID_ANGLE_UNIT ( ) );
#69 = ADVANCED_BREP_SHAPE_REPRESENTATION ( '', ( #160, #135 ), #242 ) ;
#70 = CARTESIAN_POINT ( 'NONE',  ( 0.0003266580924488323000, 32.11698025126897700, 0.01194553450077618000 ) ) ;
#71 = ORIENTED_EDGE ( 'NONE', *, *, #48, .T. ) ;
#72 = DATE_AND_TIME ( #122, #167 ) ;
#73 = CARTESIAN_POINT ( 'NONE',  ( -3.979718529154160600, 2.345098144325342000, 0.1327823473768050800 ) ) ;
#74 = APPROVAL_ROLE ( '' ) ;
#75 = CIRCLE ( 'NONE', #207, 5.000000000000000900 ) ;
#76 = FACE_OUTER_BOUND ( 'NONE', #203, .T. ) ;
#77 = DIMENSIONAL_EXPONENTS ( 1.000000000000000000, 0.0000000000000000000, 0.0000000000000000000, 0.0000000000000000000, 0.0000000000000000000, 0.0000000000000000000, 0.0000000000000000000 ) ;
#78 = APPROVAL_DATE_TIME ( #36, #149 ) ;
#79 = ORIENTED_EDGE ( 'NONE', *, *, #183, .F. ) ;
#80 = DATE_AND_TIME ( #132, #180 ) ;
#81 = APPROVAL_DATE_TIME ( #133, #136 ) ;
#82 = CARTESIAN_POINT ( 'NONE',  ( 5.427586716086636000, 2.574696383410591600, -0.1245738831522441200 ) ) ;
#83 = EDGE_LOOP ( 'NONE', ( #119, #11, #79, #244 ) ) ;
#84 = CALENDAR_DATE ( 2014, 25, 2 ) ;
#85 = CARTESIAN_POINT ( 'NONE',  ( 7.754103844454770700, 0.9507426748126673900, -0.2001750268102138700 ) ) ;
#86 = CARTESIAN_POINT ( 'NONE',  ( 5.426933126840962600, 2.574696383410591600, -0.1484649446836608700 ) ) ;
#87 = PERSON_AND_ORGANIZATION ( #4, #137 ) ;
#88 = CARTESIAN_POINT ( 'NONE',  ( 0.0000000000000000000, 0.0000000000000000000, 0.0000000000000000000 ) ) ;
#89 = CARTESIAN_POINT ( 'NONE',  ( -1.365303878264961800E-007, 32.11698025126897700, 3.735068903334380400E-009 ) ) ;
#90 = DATE_TIME_ROLE ( 'creation_date' ) ;
#91 = VERTEX_POINT ( 'NONE', #13 ) ;
#92 = ADVANCED_FACE ( 'NONE', ( #210 ), #176, .F. ) ;
#93 = AXIS2_PLACEMENT_3D ( 'NONE', #239, #114, #5 ) ;
#94 = VERTEX_POINT ( 'NONE', #216 ) ;
#95 = DIRECTION ( 'NONE',  ( -0.02734683036293325500, -1.196959198423996600E-016, -0.9996260054986069200 ) ) ;
#96 = DIRECTION ( 'NONE',  ( 0.2414229832848612500, -0.9703975072570811800, -0.006604623462462934700 ) ) ;
#97 = DIRECTION ( 'NONE',  ( -0.2414229832848611400, 0.9703975072570810700, 0.006604623462462929500 ) ) ;
#98 = ORIENTED_EDGE ( 'NONE', *, *, #56, .F. ) ;
#99 = CC_DESIGN_PERSON_AND_ORGANIZATION_ASSIGNMENT ( #229, #129, ( #144 ) ) ;
#100 = DIRECTION ( 'NONE',  ( -0.02734683036293336300, -6.051358744551542400E-018, -0.9996260054986070300 ) ) ;
#101 = EDGE_CURVE ( 'NONE', #204, #91, #127, .T. ) ;
#102 = AXIS2_PLACEMENT_3D ( 'NONE', #70, #199, #197 ) ;
#103 = ORIENTED_EDGE ( 'NONE', *, *, #101, .F. ) ;
#104 = DIRECTION ( 'NONE',  ( 1.000000000000000000, 0.0000000000000000000, 0.0000000000000000000 ) ) ;
#105 = DIRECTION ( 'NONE',  ( 0.2414229832848610900, -0.9703975072570809600, -0.006604623462463094300 ) ) ;
#106 = APPROVAL_ROLE ( '' ) ;
#107 = LINE ( 'NONE', #73, #26 ) ;
#108 = ADVANCED_FACE ( 'NONE', ( #166 ), #163, .T. ) ;
#109 = ORIENTED_EDGE ( 'NONE', *, *, #177, .F. ) ;
#110 = LENGTH_MEASURE_WITH_UNIT ( LENGTH_MEASURE( 0.02539999999999999900 ), #155 );
#111 = CARTESIAN_POINT ( 'NONE',  ( -6.225284442868230400, 0.6095644288519666000, 0.1703054909372970200 ) ) ;
#112 = CYLINDRICAL_SURFACE ( 'NONE', #245, 5.000000000000000000 ) ;
#113 = LINE ( 'NONE', #201, #152 ) ;
#114 = DIRECTION ( 'NONE',  ( 0.02734683036293332500, -1.884424186906098900E-018, 0.9996260054986069200 ) ) ;
#115 = ORIENTED_EDGE ( 'NONE', *, *, #177, .T. ) ;
#116 = ORIENTED_EDGE ( 'NONE', *, *, #225, .T. ) ;
#117 = FACE_OUTER_BOUND ( 'NONE', #61, .T. ) ;
#118 = CC_DESIGN_APPROVAL ( #149, ( #186 ) ) ;
#119 = ORIENTED_EDGE ( 'NONE', *, *, #17, .T. ) ;
#120 = CC_DESIGN_APPROVAL ( #136, ( #144 ) ) ;
#121 = DIRECTION ( 'NONE',  ( 0.02734683036293332500, -1.884424186906098900E-018, 0.9996260054986069200 ) ) ;
#122 = CALENDAR_DATE ( 2014, 25, 2 ) ;
#123 = SECURITY_CLASSIFICATION ( '', '', #16 ) ;
#124 = ORIENTED_EDGE ( 'NONE', *, *, #169, .F. ) ;
#125 = CIRCLE ( 'NONE', #240, 30.03698025126896500 ) ;
#126 = LOCAL_TIME ( 9, 25, 47.00000000000000000, #173 ) ;
#127 = CIRCLE ( 'NONE', #1, 32.11698025126897700 ) ;
#128 = CLOSED_SHELL ( 'NONE', ( #108, #92, #164, #44, #20, #191 ) ) ;
#129 = PERSON_AND_ORGANIZATION_ROLE ( 'design_supplier' ) ;
#130 = DIRECTION ( 'NONE',  ( 0.02734683036293307500, 1.110223024625156500E-016, 0.9996260054986070300 ) ) ;
#131 = ORIENTED_EDGE ( 'NONE', *, *, #225, .F. ) ;
#132 = CALENDAR_DATE ( 2014, 25, 2 ) ;
#133 = DATE_AND_TIME ( #181, #235 ) ;
#134 = LOCAL_TIME ( 9, 25, 47.00000000000000000, #182 ) ;
#135 = AXIS2_PLACEMENT_3D ( 'NONE', #88, #220, #104 ) ;
#136 = APPROVAL ( #226, 'UNSPECIFIED' ) ;
#137 = ORGANIZATION ( 'UNSPECIFIED', 'UNSPECIFIED', '' ) ;
#138 = DIRECTION ( 'NONE',  ( 0.2414229832848611100, -0.9703975072570811800, -0.006604623462462932100 ) ) ;
#139 = CC_DESIGN_PERSON_AND_ORGANIZATION_ASSIGNMENT ( #30, #202, ( #186 ) ) ;
#140 = CARTESIAN_POINT ( 'NONE',  ( -1.365303878264961800E-007, 32.11698025126897700, 3.735068903334380400E-009 ) ) ;
#141 = CC_DESIGN_DATE_AND_TIME_ASSIGNMENT ( #72, #90, ( #186 ) ) ;
#142 = PERSON_AND_ORGANIZATION_ROLE ( 'classification_officer' ) ;
#143 = ORIENTED_EDGE ( 'NONE', *, *, #56, .T. ) ;
#144 = PRODUCT_DEFINITION_FORMATION_WITH_SPECIFIED_SOURCE ( 'ANY', '', #232, .NOT_KNOWN. ) ;
#145 = APPROVAL_DATE_TIME ( #200, #184 ) ;
#146 = DIRECTION ( 'NONE',  ( -0.02734683036293336300, -6.051358744551542400E-018, -0.9996260054986070300 ) ) ;
#147 = DIRECTION ( 'NONE',  ( -0.02734683036293325500, -9.774348024824590000E-017, -0.9996260054986069200 ) ) ;
#148 = ORIENTED_EDGE ( 'NONE', *, *, #33, .F. ) ;
#149 = APPROVAL ( #190, 'UNSPECIFIED' ) ;
#150 = EDGE_CURVE ( 'NONE', #218, #19, #27, .T. ) ;
#151 = CIRCLE ( 'NONE', #214, 30.03698025126896500 ) ;
#152 = VECTOR ( 'NONE', #14, 39.37007874015748900 ) ;
#153 = ORIENTED_EDGE ( 'NONE', *, *, #2, .T. ) ;
#154 = PRODUCT_DEFINITION_SHAPE ( 'NONE', 'NONE',  #186 ) ;
#155 =( LENGTH_UNIT ( ) NAMED_UNIT ( * ) SI_UNIT ( $, .METRE. ) );
#156 = APPROVAL_STATUS ( 'not_yet_approved' ) ;
#157 = DIRECTION ( 'NONE',  ( -0.02734683036293325500, -1.196959198423996600E-016, -0.9996260054986069200 ) ) ;
#158 = APPLICATION_CONTEXT ( 'configuration controlled 3d designs of mechanical parts and assemblies' ) ;
#159 = LINE ( 'NONE', #85, #66 ) ;
#160 = MANIFOLD_SOLID_BREP ( 'Rubber Strip by Tommy-1-solid1', #128 ) ;
#161 = CIRCLE ( 'NONE', #93, 5.000000000000000900 ) ;
#162 = ORIENTED_EDGE ( 'NONE', *, *, #17, .F. ) ;
#163 = CYLINDRICAL_SURFACE ( 'NONE', #165, 32.11698025126897700 ) ;
#164 = ADVANCED_FACE ( 'NONE', ( #117 ), #209, .T. ) ;
#165 = AXIS2_PLACEMENT_3D ( 'NONE', #10, #100, #171 ) ;
#166 = FACE_OUTER_BOUND ( 'NONE', #45, .T. ) ;
#167 = LOCAL_TIME ( 9, 25, 47.00000000000000000, #224 ) ;
#168 = CARTESIAN_POINT ( 'NONE',  ( -3.980372118399835700, 2.345098144325342000, 0.1088912858453883300 ) ) ;
#169 = EDGE_CURVE ( 'NONE', #94, #218, #151, .T. ) ;
#170 = EDGE_LOOP ( 'NONE', ( #124, #71, #103, #50 ) ) ;
#171 = DIRECTION ( 'NONE',  ( 0.2414229832848610900, -0.9703975072570809600, -0.006604623462463094300 ) ) ;
#172 = CIRCLE ( 'NONE', #189, 5.000000000000001800 ) ;
#173 = COORDINATED_UNIVERSAL_TIME_OFFSET ( 8, 0, .BEHIND. ) ;
#174 = PERSON_AND_ORGANIZATION ( #4, #137 ) ;
#175 = CARTESIAN_POINT ( 'NONE',  ( -0.008311514196499156200, 32.15301485503979300, 0.02413632041990917300 ) ) ;
#176 = CYLINDRICAL_SURFACE ( 'NONE', #102, 30.03698025126896500 ) ;
#177 = EDGE_CURVE ( 'NONE', #94, #57, #107, .T. ) ;
#178 = DIRECTION ( 'NONE',  ( 0.02734683036293307500, 1.110223024625156500E-016, 0.9996260054986070300 ) ) ;
#179 = ORIENTED_EDGE ( 'NONE', *, *, #150, .T. ) ;
#180 = LOCAL_TIME ( 9, 25, 47.00000000000000000, #234 ) ;
#181 = CALENDAR_DATE ( 2014, 25, 2 ) ;
#182 = COORDINATED_UNIVERSAL_TIME_OFFSET ( 8, 0, .BEHIND. ) ;
#183 = EDGE_CURVE ( 'NONE', #204, #218, #161, .T. ) ;
#184 = APPROVAL ( #156, 'UNSPECIFIED' ) ;
#185 = DIRECTION ( 'NONE',  ( 0.2414229832848611100, -0.9703975072570811800, -0.006604623462463096900 ) ) ;
#186 = PRODUCT_DEFINITION ( 'UNKNOWN', '', #144, #195 ) ;
#187 =( NAMED_UNIT ( * ) PLANE_ANGLE_UNIT ( ) SI_UNIT ( $, .RADIAN. ) );
#188 = DIRECTION ( 'NONE',  ( -0.02734683036293323800, -1.532546314795037500E-016, -0.9996260054986069200 ) ) ;
#189 = AXIS2_PLACEMENT_3D ( 'NONE', #64, #121, #9 ) ;
#190 = APPROVAL_STATUS ( 'not_yet_approved' ) ;
#191 = ADVANCED_FACE ( 'NONE', ( #76 ), #212, .T. ) ;
#192 = DIRECTION ( 'NONE',  ( 0.02734683036293332500, -1.884424186906098900E-018, 0.9996260054986069200 ) ) ;
#193 = DIRECTION ( 'NONE',  ( -0.02734683036293323800, -1.532546314795037500E-016, -0.9996260054986069200 ) ) ;
#194 = APPLICATION_PROTOCOL_DEFINITION ( 'international standard', 'config_control_design', 1994, #38 ) ;
#195 = DESIGN_CONTEXT ( 'detailed design', #158, 'design' ) ;
#196 = DIRECTION ( 'NONE',  ( -0.02734683036293324500, -1.532546314795037800E-016, -0.9996260054986070300 ) ) ;
#197 = DIRECTION ( 'NONE',  ( -0.2414229832848611400, 0.9703975072570810700, 0.006604623462462929500 ) ) ;
#198 = ORIENTED_EDGE ( 'NONE', *, *, #169, .T. ) ;
#199 = DIRECTION ( 'NONE',  ( 0.02734683036293307500, 1.110223024625156500E-016, 0.9996260054986070300 ) ) ;
#200 = DATE_AND_TIME ( #8, #126 ) ;
#201 = CARTESIAN_POINT ( 'NONE',  ( -6.224957648245371900, 0.6095644288519617100, 0.1822510217030010300 ) ) ;
#202 = PERSON_AND_ORGANIZATION_ROLE ( 'creator' ) ;
#203 = EDGE_LOOP ( 'NONE', ( #153, #131, #246, #115 ) ) ;
#204 = VERTEX_POINT ( 'NONE', #222 ) ;
#205 = PRODUCT_RELATED_PRODUCT_CATEGORY ( 'detail', '', ( #232 ) ) ;
#206 = CC_DESIGN_PERSON_AND_ORGANIZATION_ASSIGNMENT ( #87, #41, ( #232 ) ) ;
#207 = AXIS2_PLACEMENT_3D ( 'NONE', #31, #192, #208 ) ;
#208 = DIRECTION ( 'NONE',  ( 0.2414229832848593400, -0.9703975072570815200, -0.006604623462463052700 ) ) ;
#209 = PLANE ( 'NONE',  #12 ) ;
#210 = FACE_OUTER_BOUND ( 'NONE', #6, .T. ) ;
#211 = DIRECTION ( 'NONE',  ( -0.02734683036293324500, -1.532546314795037800E-016, -0.9996260054986070300 ) ) ;
#212 = CYLINDRICAL_SURFACE ( 'NONE', #223, 5.000000000000001800 ) ;
#213 = ORIENTED_EDGE ( 'NONE', *, *, #2, .F. ) ;
#214 = AXIS2_PLACEMENT_3D ( 'NONE', #248, #130, #97 ) ;
#215 = APPROVAL_PERSON_ORGANIZATION ( #22, #136, #106 ) ;
#216 = CARTESIAN_POINT ( 'NONE',  ( -3.979718529154160600, 2.345098144325342000, 0.1327823473768050800 ) ) ;
#217 = FACE_OUTER_BOUND ( 'NONE', #170, .T. ) ;
#218 = VERTEX_POINT ( 'NONE', #247 ) ;
#219 = SHAPE_REPRESENTATION_RELATIONSHIP ( 'NONE' , 'NONE' ,  #49, #69 ) ;
#220 = DIRECTION ( 'NONE',  ( 0.0000000000000000000, 0.0000000000000000000, 1.000000000000000000 ) ) ;
#221 = DIRECTION ( 'NONE',  ( -0.02734683036293336300, -6.051358744551542400E-018, -0.9996260054986070300 ) ) ;
#222 = CARTESIAN_POINT ( 'NONE',  ( 7.754430639077608800, 0.9507426748126630600, -0.1882294960445055100 ) ) ;
#223 = AXIS2_PLACEMENT_3D ( 'NONE', #60, #211, #138 ) ;
#224 = COORDINATED_UNIVERSAL_TIME_OFFSET ( 8, 0, .BEHIND. ) ;
#225 = EDGE_CURVE ( 'NONE', #91, #32, #113, .T. ) ;
#226 = APPROVAL_STATUS ( 'not_yet_approved' ) ;
#227 = FACE_OUTER_BOUND ( 'NONE', #83, .T. ) ;
#228 = APPROVAL_PERSON_ORGANIZATION ( #34, #184, #53 ) ;
#229 = PERSON_AND_ORGANIZATION ( #4, #137 ) ;
#230 = VECTOR ( 'NONE', #193, 39.37007874015748900 ) ;
#231 = AXIS2_PLACEMENT_3D ( 'NONE', #89, #221, #105 ) ;
#232 = PRODUCT ( 'Rubber Strip Flat Part by Tommy', 'Rubber Strip Flat Part by Tommy', '', ( #39 ) ) ;
#233 = DIRECTION ( 'NONE',  ( 0.2414229832848612000, -0.9703975072570811800, -0.006604623462462985900 ) ) ;
#234 = COORDINATED_UNIVERSAL_TIME_OFFSET ( 8, 0, .BEHIND. ) ;
#235 = LOCAL_TIME ( 9, 25, 47.00000000000000000, #42 ) ;
#236 = CARTESIAN_POINT ( 'NONE',  ( 7.753777049831934500, 0.9507426748126630600, -0.2121205575759211600 ) ) ;
#237 = CARTESIAN_POINT ( 'NONE',  ( -0.008965103442172474300, 32.15301485503978500, 0.0002452588884935247800 ) ) ;
#238 = APPROVAL_PERSON_ORGANIZATION ( #43, #149, #74 ) ;
#239 = CARTESIAN_POINT ( 'NONE',  ( 3.848813270721951300, -2.169311308410249800, -0.08138328051245452600 ) ) ;
#240 = AXIS2_PLACEMENT_3D ( 'NONE', #140, #178, #65 ) ;
#241 = ORIENTED_EDGE ( 'NONE', *, *, #58, .T. ) ;
#242 =( GEOMETRIC_REPRESENTATION_CONTEXT ( 3 ) GLOBAL_UNCERTAINTY_ASSIGNED_CONTEXT ( ( #62 ) ) GLOBAL_UNIT_ASSIGNED_CONTEXT ( ( #52, #187, #68 ) ) REPRESENTATION_CONTEXT ( 'NONE', 'WORKASPACE' ) );
#243 = CARTESIAN_POINT ( 'NONE',  ( 3.848813270721951300, -2.169311308410249800, -0.08138328051245452600 ) ) ;
#244 = ORIENTED_EDGE ( 'NONE', *, *, #33, .T. ) ;
#245 = AXIS2_PLACEMENT_3D ( 'NONE', #243, #196, #96 ) ;
#246 = ORIENTED_EDGE ( 'NONE', *, *, #48, .F. ) ;
#247 = CARTESIAN_POINT ( 'NONE',  ( 5.427586716086636000, 2.574696383410591100, -0.1245738831522463100 ) ) ;
#248 = CARTESIAN_POINT ( 'NONE',  ( 0.0006534527152854911100, 32.11698025126897700, 0.02389106526648564200 ) ) ;
#249 = PERSON_AND_ORGANIZATION_ROLE ( 'creator' ) ;
#250 = CC_DESIGN_SECURITY_CLASSIFICATION ( #123, ( #144 ) ) ;
ENDSEC;
END-ISO-10303-21;
