ISO-10303-21;
HEADER;
FILE_DESCRIPTION (( 'STEP AP203' ),
    '1' );
FILE_NAME ('keel_6forAnalysisGC.STEP',
    '2013-02-24T16:03:00',
    ( '' ),
    ( '' ),
    'SwSTEP 2.0',
    'SolidWorks 2012',
    '' );
FILE_SCHEMA (( 'CONFIG_CONTROL_DESIGN' ));
ENDSEC;

DATA;
#1 = EDGE_CURVE ( 'NONE', #45, #49, #263, .T. ) ;
#2 = EDGE_CURVE ( 'NONE', #52, #45, #34, .T. ) ;
#3 = EDGE_CURVE ( 'NONE', #49, #56, #47, .T. ) ;
#4 = EDGE_CURVE ( 'NONE', #56, #52, #266, .T. ) ;
#5 = EDGE_CURVE ( 'NONE', #49, #45, #264, .T. ) ;
#6 = EDGE_CURVE ( 'NONE', #52, #56, #262, .T. ) ;
#7 = AXIS2_PLACEMENT_3D ( 'NONE', #164, #217, #218 ) ;
#8 =( GEOMETRIC_REPRESENTATION_CONTEXT ( 3 ) GLOBAL_UNCERTAINTY_ASSIGNED_CONTEXT ( ( #261 ) ) GLOBAL_UNIT_ASSIGNED_CONTEXT ( ( #233, #234, #235 ) ) REPRESENTATION_CONTEXT ( 'NONE', 'WORKASPACE' ) );
#9 = AXIS2_PLACEMENT_3D ( 'NONE', #215, #221, #222 ) ;
#10 = AXIS2_PLACEMENT_3D ( 'NONE', #232, #224, #238 ) ;
#11 = CC_DESIGN_PERSON_AND_ORGANIZATION_ASSIGNMENT ( #65, #240, ( #32 ) ) ;
#12 = PRODUCT_DEFINITION ( 'UNKNOWN', '', #17, #30 ) ;
#13 = APPROVAL ( #243, 'UNSPECIFIED' ) ;
#14 = CC_DESIGN_APPROVAL ( #13, ( #12 ) ) ;
#15 = CC_DESIGN_PERSON_AND_ORGANIZATION_ASSIGNMENT ( #73, #245, ( #12 ) ) ;
#16 = CC_DESIGN_DATE_AND_TIME_ASSIGNMENT ( #77, #246, ( #12 ) ) ;
#17 = PRODUCT_DEFINITION_FORMATION_WITH_SPECIFIED_SOURCE ( 'ANY', '', #32, .NOT_KNOWN. ) ;
#18 = APPROVAL ( #247, 'UNSPECIFIED' ) ;
#19 = CC_DESIGN_APPROVAL ( #18, ( #17 ) ) ;
#20 = CC_DESIGN_PERSON_AND_ORGANIZATION_ASSIGNMENT ( #85, #249, ( #17 ) ) ;
#21 = SECURITY_CLASSIFICATION ( '', '', #251 ) ;
#22 = CC_DESIGN_PERSON_AND_ORGANIZATION_ASSIGNMENT ( #86, #250, ( #17 ) ) ;
#23 = CC_DESIGN_PERSON_AND_ORGANIZATION_ASSIGNMENT ( #87, #252, ( #21 ) ) ;
#24 = CC_DESIGN_DATE_AND_TIME_ASSIGNMENT ( #91, #253, ( #21 ) ) ;
#25 = APPROVAL ( #254, 'UNSPECIFIED' ) ;
#26 = ADVANCED_FACE ( 'NONE', ( #38 ), #256, .T. ) ;
#27 = ADVANCED_FACE ( 'NONE', ( #53 ), #138, .F. ) ;
#28 = ADVANCED_FACE ( 'NONE', ( #55 ), #219, .T. ) ;
#29 = ADVANCED_FACE ( 'NONE', ( #62 ), #267, .T. ) ;
#30 = DESIGN_CONTEXT ( 'detailed design', #241, 'design' ) ;
#31 = PRODUCT_DEFINITION_SHAPE ( 'NONE', 'NONE',  #12 ) ;
#32 = PRODUCT ( 'keel_6forAnalysisGC', 'keel_6forAnalysisGC', '', ( #239 ) ) ;
#33 = PERSON ( 'UNSPECIFIED', 'UNSPECIFIED', 'UNSPECIFIED', ('UNSPECIFIED'), ('UNSPECIFIED'), ('UNSPECIFIED') ) ;
#34 = LINE ( 'NONE', #101, #37 ) ;
#35 = EDGE_LOOP ( 'NONE', ( #54, #59, #50, #46 ) ) ;
#36 = EDGE_LOOP ( 'NONE', ( #41, #43, #51, #61 ) ) ;
#37 = VECTOR ( 'NONE', #127, 100.0000000000000100 ) ;
#38 = FACE_OUTER_BOUND ( 'NONE', #35, .T. ) ;
#39 = EDGE_LOOP ( 'NONE', ( #40, #58 ) ) ;
#40 = ORIENTED_EDGE ( 'NONE', *, *, #4, .F. ) ;
#41 = ORIENTED_EDGE ( 'NONE', *, *, #5, .F. ) ;
#42 = VECTOR ( 'NONE', #130, 100.0000000000000100 ) ;
#43 = ORIENTED_EDGE ( 'NONE', *, *, #3, .T. ) ;
#44 = ORIENTED_EDGE ( 'NONE', *, *, #1, .T. ) ;
#45 = VERTEX_POINT ( 'NONE', #229 ) ;
#46 = ORIENTED_EDGE ( 'NONE', *, *, #3, .F. ) ;
#47 = LINE ( 'NONE', #99, #42 ) ;
#48 = ORIENTED_EDGE ( 'NONE', *, *, #5, .T. ) ;
#49 = VERTEX_POINT ( 'NONE', #230 ) ;
#50 = ORIENTED_EDGE ( 'NONE', *, *, #6, .T. ) ;
#51 = ORIENTED_EDGE ( 'NONE', *, *, #4, .T. ) ;
#52 = VERTEX_POINT ( 'NONE', #231 ) ;
#53 = FACE_OUTER_BOUND ( 'NONE', #39, .T. ) ;
#54 = ORIENTED_EDGE ( 'NONE', *, *, #1, .F. ) ;
#55 = FACE_OUTER_BOUND ( 'NONE', #60, .T. ) ;
#56 = VERTEX_POINT ( 'NONE', #220 ) ;
#57 = CLOSED_SHELL ( 'NONE', ( #27, #28, #29, #26 ) ) ;
#58 = ORIENTED_EDGE ( 'NONE', *, *, #6, .F. ) ;
#59 = ORIENTED_EDGE ( 'NONE', *, *, #2, .F. ) ;
#60 = EDGE_LOOP ( 'NONE', ( #48, #44 ) ) ;
#61 = ORIENTED_EDGE ( 'NONE', *, *, #2, .T. ) ;
#62 = FACE_OUTER_BOUND ( 'NONE', #36, .T. ) ;
#63 = SHAPE_DEFINITION_REPRESENTATION ( #31, #260 ) ;
#64 = ORGANIZATION ( 'UNSPECIFIED', 'UNSPECIFIED', '' ) ;
#65 = PERSON_AND_ORGANIZATION ( #33, #64 ) ;
#66 = PERSON_AND_ORGANIZATION ( #33, #64 ) ;
#67 = APPROVAL_PERSON_ORGANIZATION ( #66, #13, #244 ) ;
#68 = COORDINATED_UNIVERSAL_TIME_OFFSET ( 5, 0, .BEHIND. ) ;
#69 = LOCAL_TIME ( 11, 3, 0.0000000000000000000, #68 ) ;
#70 = CALENDAR_DATE ( 2013, 24, 2 ) ;
#71 = DATE_AND_TIME ( #70, #69 ) ;
#72 = APPROVAL_DATE_TIME ( #71, #13 ) ;
#73 = PERSON_AND_ORGANIZATION ( #33, #64 ) ;
#74 = COORDINATED_UNIVERSAL_TIME_OFFSET ( 5, 0, .BEHIND. ) ;
#75 = LOCAL_TIME ( 11, 3, 0.0000000000000000000, #74 ) ;
#76 = CALENDAR_DATE ( 2013, 24, 2 ) ;
#77 = DATE_AND_TIME ( #76, #75 ) ;
#78 = PERSON_AND_ORGANIZATION ( #33, #64 ) ;
#79 = APPROVAL_PERSON_ORGANIZATION ( #78, #18, #248 ) ;
#80 = COORDINATED_UNIVERSAL_TIME_OFFSET ( 5, 0, .BEHIND. ) ;
#81 = LOCAL_TIME ( 11, 3, 0.0000000000000000000, #80 ) ;
#82 = CALENDAR_DATE ( 2013, 24, 2 ) ;
#83 = DATE_AND_TIME ( #82, #81 ) ;
#84 = APPROVAL_DATE_TIME ( #83, #18 ) ;
#85 = PERSON_AND_ORGANIZATION ( #33, #64 ) ;
#86 = PERSON_AND_ORGANIZATION ( #33, #64 ) ;
#87 = PERSON_AND_ORGANIZATION ( #33, #64 ) ;
#88 = COORDINATED_UNIVERSAL_TIME_OFFSET ( 5, 0, .BEHIND. ) ;
#89 = LOCAL_TIME ( 11, 3, 0.0000000000000000000, #88 ) ;
#90 = CALENDAR_DATE ( 2013, 24, 2 ) ;
#91 = DATE_AND_TIME ( #90, #89 ) ;
#92 = PERSON_AND_ORGANIZATION ( #33, #64 ) ;
#93 = APPROVAL_PERSON_ORGANIZATION ( #92, #25, #255 ) ;
#94 = COORDINATED_UNIVERSAL_TIME_OFFSET ( 5, 0, .BEHIND. ) ;
#95 = LOCAL_TIME ( 11, 3, 0.0000000000000000000, #94 ) ;
#96 = CALENDAR_DATE ( 2013, 24, 2 ) ;
#97 = DATE_AND_TIME ( #96, #95 ) ;
#98 = APPROVAL_DATE_TIME ( #97, #25 ) ;
#99 = CARTESIAN_POINT ( 'NONE',  ( 5.199905111397266700, -62.00000000000000000, 0.2034515543752839500 ) ) ;
#100 = CARTESIAN_POINT ( 'NONE',  ( -1.474147287686568000, 0.0000000000000000000, -0.9708110264468814400 ) ) ;
#101 = CARTESIAN_POINT ( 'NONE',  ( 5.199905111397266700, -62.00000000000000000, -0.2034515542860612100 ) ) ;
#102 = CARTESIAN_POINT ( 'NONE',  ( 0.2153169111018801700, 0.0000000000000000000, -0.8878149379583725200 ) ) ;
#103 = CARTESIAN_POINT ( 'NONE',  ( 2.026492874912963100, 0.0000000000000000000, -0.7549625911558997000 ) ) ;
#104 = CARTESIAN_POINT ( 'NONE',  ( 4.146193975498805500, 0.0000000000000000000, -0.5637781048041855500 ) ) ;
#105 = CARTESIAN_POINT ( 'NONE',  ( 5.737352486345349300, 0.0000000000000000000, -0.3885523381698643400 ) ) ;
#106 = CARTESIAN_POINT ( 'NONE',  ( 6.753123521295151500, 0.0000000000000000000, -0.2642227977741054600 ) ) ;
#107 = CARTESIAN_POINT ( 'NONE',  ( -2.888941375729575000, 0.0000000000000000000, -0.9897154029483065100 ) ) ;
#108 = CARTESIAN_POINT ( 'NONE',  ( -3.941448617018598300, 0.0000000000000000000, -0.9719847940486598900 ) ) ;
#109 = CARTESIAN_POINT ( 'NONE',  ( -4.793435289654085300, 0.0000000000000000000, -0.9287819614860924900 ) ) ;
#110 = CARTESIAN_POINT ( 'NONE',  ( -5.729320039754163900, 0.0000000000000000000, -0.8428107282947455700 ) ) ;
#111 = CARTESIAN_POINT ( 'NONE',  ( -6.596570794828698700, 0.0000000000000000000, -0.6886759445773539300 ) ) ;
#112 = CARTESIAN_POINT ( 'NONE',  ( -7.310379958514754000, 0.0000000000000000000, -0.5158206409927351700 ) ) ;
#113 = CARTESIAN_POINT ( 'NONE',  ( -7.907208585696053200, 0.0000000000000000000, -0.09615127179088683900 ) ) ;
#114 = CARTESIAN_POINT ( 'NONE',  ( -7.659746128678031100, 0.0000000000000000000, 0.2855715042786972100 ) ) ;
#115 = CARTESIAN_POINT ( 'NONE',  ( -7.260252950400158900, 0.0000000000000000000, 0.4999954004879892400 ) ) ;
#116 = CARTESIAN_POINT ( 'NONE',  ( -6.579444362746127000, 0.0000000000000000000, 0.7066415098678658900 ) ) ;
#117 = CARTESIAN_POINT ( 'NONE',  ( -5.732874030784474300, 0.0000000000000000000, 0.8390826646194298200 ) ) ;
#118 = CARTESIAN_POINT ( 'NONE',  ( -4.792231252185183100, 0.0000000000000000000, 0.9300449721770678300 ) ) ;
#119 = CARTESIAN_POINT ( 'NONE',  ( -3.941696372721289300, 0.0000000000000000000, 0.9717249033753703200 ) ) ;
#120 = CARTESIAN_POINT ( 'NONE',  ( -2.888831912307763300, 0.0000000000000000000, 0.9898302278131323500 ) ) ;
#121 = CARTESIAN_POINT ( 'NONE',  ( -1.474206802046599300, 0.0000000000000000000, 0.9707485971021938600 ) ) ;
#122 = CARTESIAN_POINT ( 'NONE',  ( 0.2153304415356391600, 0.0000000000000000000, 0.8878291311067472200 ) ) ;
#123 = CARTESIAN_POINT ( 'NONE',  ( 2.026489388695970300, 0.0000000000000000000, 0.7549589341839818600 ) ) ;
#124 = CARTESIAN_POINT ( 'NONE',  ( 4.146196062332776000, 0.0000000000000000000, 0.5637802938655149800 ) ) ;
#125 = CARTESIAN_POINT ( 'NONE',  ( 5.737351701454648500, 0.0000000000000000000, 0.3885515148070247700 ) ) ;
#126 = CARTESIAN_POINT ( 'NONE',  ( 6.753123521295152400, 0.0000000000000000000, 0.2642227978899791000 ) ) ;
#127 = DIRECTION ( 'NONE',  ( 0.02504404024577428300, 0.9996858686088384600, -0.0009798734408513667300 ) ) ;
#128 = CARTESIAN_POINT ( 'NONE',  ( 3.646686701499382000, -124.0000000000000000, -0.1426803107980169600 ) ) ;
#129 = CARTESIAN_POINT ( 'NONE',  ( 4.089486701499381200, -124.0000000000000000, -1.292475376940896400E-011 ) ) ;
#130 = DIRECTION ( 'NONE',  ( -0.02504404024577427900, -0.9996858686088380100, -0.0009798734412810854900 ) ) ;
#131 = CARTESIAN_POINT ( 'NONE',  ( 6.753123521295152400, 0.0000000000000000000, 0.2642227978899791000 ) ) ;
#132 = CARTESIAN_POINT ( 'NONE',  ( 3.646686701499382500, -124.0000000000000000, 0.1426803108605887200 ) ) ;
#133 = CARTESIAN_POINT ( 'NONE',  ( 7.573123521295153500, 0.0000000000000000000, -2.393468723996955400E-011 ) ) ;
#134 = CARTESIAN_POINT ( 'NONE',  ( 3.098170342626489000, -124.0000000000000000, -0.2098182626117268400 ) ) ;
#135 = CARTESIAN_POINT ( 'NONE',  ( 3.646686701499382000, -124.0000000000000000, -0.1426803107980169600 ) ) ;
#136 = CARTESIAN_POINT ( 'NONE',  ( 6.753123521295151500, 0.0000000000000000000, -0.2642227977741054600 ) ) ;
#137 = CARTESIAN_POINT ( 'NONE',  ( 6.753123521295152400, 0.0000000000000000000, 0.2642227978899791000 ) ) ;
#138 = PLANE ( 'NONE',  #7 ) ;
#139 = CARTESIAN_POINT ( 'NONE',  ( 2.238944746769354800, -124.0000000000000000, -0.3044401765942603100 ) ) ;
#140 = CARTESIAN_POINT ( 'NONE',  ( 1.094306152453000000, -124.0000000000000000, -0.4076797992241856200 ) ) ;
#141 = CARTESIAN_POINT ( 'NONE',  ( 0.1162711319950153100, -124.0000000000000000, -0.4794200664975213400 ) ) ;
#142 = CARTESIAN_POINT ( 'NONE',  ( -0.7960395353507464500, -124.0000000000000000, -0.5242379542813160300 ) ) ;
#143 = CARTESIAN_POINT ( 'NONE',  ( -1.560028342893971000, -124.0000000000000000, -0.5344463175920855000 ) ) ;
#144 = CARTESIAN_POINT ( 'NONE',  ( -2.128382253190042900, -124.0000000000000000, -0.5248717887862763800 ) ) ;
#145 = CARTESIAN_POINT ( 'NONE',  ( -2.588455056413206700, -124.0000000000000000, -0.5015422592024899600 ) ) ;
#146 = CARTESIAN_POINT ( 'NONE',  ( -3.093832821467248400, -124.0000000000000000, -0.4551177932791628000 ) ) ;
#147 = CARTESIAN_POINT ( 'NONE',  ( -3.562148229207496600, -124.0000000000000000, -0.3718850100717711600 ) ) ;
#148 = CARTESIAN_POINT ( 'NONE',  ( -3.947605177597968100, -124.0000000000000000, -0.2785431461360770600 ) ) ;
#149 = CARTESIAN_POINT ( 'NONE',  ( -4.269892636275868000, -124.0000000000000000, -0.05192168676707886700 ) ) ;
#150 = CARTESIAN_POINT ( 'NONE',  ( -4.136262909486137400, -124.0000000000000000, 0.1542086123104965100 ) ) ;
#151 = CARTESIAN_POINT ( 'NONE',  ( -3.920536593216085400, -124.0000000000000000, 0.2699975162635142600 ) ) ;
#152 = CARTESIAN_POINT ( 'NONE',  ( -3.552899955882909700, -124.0000000000000000, 0.3815864153286476200 ) ) ;
#153 = CARTESIAN_POINT ( 'NONE',  ( -3.095751976623615700, -124.0000000000000000, 0.4531046388944921500 ) ) ;
#154 = CARTESIAN_POINT ( 'NONE',  ( -2.587804876179999400, -124.0000000000000000, 0.5022242849756166600 ) ) ;
#155 = CARTESIAN_POINT ( 'NONE',  ( -2.128516041269495700, -124.0000000000000000, 0.5247314478226998700 ) ) ;
#156 = CARTESIAN_POINT ( 'NONE',  ( -1.559969232646192700, -124.0000000000000000, 0.5345083230190913500 ) ) ;
#157 = CARTESIAN_POINT ( 'NONE',  ( -0.7960716731051633600, -124.0000000000000000, 0.5242042424351847100 ) ) ;
#158 = CARTESIAN_POINT ( 'NONE',  ( 0.1162784384292451400, -124.0000000000000000, 0.4794277307976437300 ) ) ;
#159 = CARTESIAN_POINT ( 'NONE',  ( 1.094304269895824300, -124.0000000000000000, 0.4076778244593503000 ) ) ;
#160 = CARTESIAN_POINT ( 'NONE',  ( 2.238945873659699400, -124.0000000000000000, 0.3044413586873780400 ) ) ;
#161 = CARTESIAN_POINT ( 'NONE',  ( 3.098169918785509400, -124.0000000000000000, 0.2098178179957934900 ) ) ;
#162 = CARTESIAN_POINT ( 'NONE',  ( 3.646686701499382500, -124.0000000000000000, 0.1426803108605887200 ) ) ;
#163 = CARTESIAN_POINT ( 'NONE',  ( 3.646686701499382500, -124.0000000000000000, 0.1426803108605887200 ) ) ;
#164 = CARTESIAN_POINT ( 'NONE',  ( 3.868086701499382100, -124.0000000000000000, 9.180568631694807600E-012 ) ) ;
#165 = CARTESIAN_POINT ( 'NONE',  ( 5.737351701454648500, 0.0000000000000000000, 0.3885515148070247700 ) ) ;
#166 = CARTESIAN_POINT ( 'NONE',  ( 3.098169918785509400, -124.0000000000000000, 0.2098178179957934900 ) ) ;
#167 = CARTESIAN_POINT ( 'NONE',  ( 4.146196062332776000, 0.0000000000000000000, 0.5637802938655149800 ) ) ;
#168 = CARTESIAN_POINT ( 'NONE',  ( 2.238945873659699400, -124.0000000000000000, 0.3044413586873780400 ) ) ;
#169 = CARTESIAN_POINT ( 'NONE',  ( 2.026489388695970300, 0.0000000000000000000, 0.7549589341839818600 ) ) ;
#170 = CARTESIAN_POINT ( 'NONE',  ( 1.094304269895824300, -124.0000000000000000, 0.4076778244593503000 ) ) ;
#171 = CARTESIAN_POINT ( 'NONE',  ( 0.2153304415356391600, 0.0000000000000000000, 0.8878291311067472200 ) ) ;
#172 = CARTESIAN_POINT ( 'NONE',  ( 0.1162784384292451400, -124.0000000000000000, 0.4794277307976437300 ) ) ;
#173 = CARTESIAN_POINT ( 'NONE',  ( -1.474206802046599300, 0.0000000000000000000, 0.9707485971021938600 ) ) ;
#174 = CARTESIAN_POINT ( 'NONE',  ( -0.7960716731051633600, -124.0000000000000000, 0.5242042424351847100 ) ) ;
#175 = CARTESIAN_POINT ( 'NONE',  ( -2.888831912307763300, 0.0000000000000000000, 0.9898302278131323500 ) ) ;
#176 = CARTESIAN_POINT ( 'NONE',  ( -1.559969232646192700, -124.0000000000000000, 0.5345083230190913500 ) ) ;
#177 = CARTESIAN_POINT ( 'NONE',  ( -3.941696372721289300, 0.0000000000000000000, 0.9717249033753703200 ) ) ;
#178 = CARTESIAN_POINT ( 'NONE',  ( -2.128516041269495700, -124.0000000000000000, 0.5247314478226998700 ) ) ;
#179 = CARTESIAN_POINT ( 'NONE',  ( -4.792231252185183100, 0.0000000000000000000, 0.9300449721770678300 ) ) ;
#180 = CARTESIAN_POINT ( 'NONE',  ( -2.587804876179999400, -124.0000000000000000, 0.5022242849756166600 ) ) ;
#181 = CARTESIAN_POINT ( 'NONE',  ( -5.732874030784474300, 0.0000000000000000000, 0.8390826646194298200 ) ) ;
#182 = CARTESIAN_POINT ( 'NONE',  ( -3.095751976623615700, -124.0000000000000000, 0.4531046388944921500 ) ) ;
#183 = CARTESIAN_POINT ( 'NONE',  ( -6.579444362746127000, 0.0000000000000000000, 0.7066415098678658900 ) ) ;
#184 = CARTESIAN_POINT ( 'NONE',  ( -3.552899955882909700, -124.0000000000000000, 0.3815864153286476200 ) ) ;
#185 = CARTESIAN_POINT ( 'NONE',  ( -7.260252950400158900, 0.0000000000000000000, 0.4999954004879892400 ) ) ;
#186 = CARTESIAN_POINT ( 'NONE',  ( -3.920536593216085400, -124.0000000000000000, 0.2699975162635142600 ) ) ;
#187 = CARTESIAN_POINT ( 'NONE',  ( -7.659746128678031100, 0.0000000000000000000, 0.2855715042786972100 ) ) ;
#188 = CARTESIAN_POINT ( 'NONE',  ( -4.136262909486137400, -124.0000000000000000, 0.1542086123104965100 ) ) ;
#189 = CARTESIAN_POINT ( 'NONE',  ( -7.907208585696053200, 0.0000000000000000000, -0.09615127179088683900 ) ) ;
#190 = CARTESIAN_POINT ( 'NONE',  ( -4.269892636275868000, -124.0000000000000000, -0.05192168676707886700 ) ) ;
#191 = CARTESIAN_POINT ( 'NONE',  ( -7.310379958514754000, 0.0000000000000000000, -0.5158206409927351700 ) ) ;
#192 = CARTESIAN_POINT ( 'NONE',  ( -3.947605177597968100, -124.0000000000000000, -0.2785431461360770600 ) ) ;
#193 = CARTESIAN_POINT ( 'NONE',  ( -6.596570794828698700, 0.0000000000000000000, -0.6886759445773539300 ) ) ;
#194 = CARTESIAN_POINT ( 'NONE',  ( -3.562148229207496600, -124.0000000000000000, -0.3718850100717711600 ) ) ;
#195 = CARTESIAN_POINT ( 'NONE',  ( -5.729320039754163900, 0.0000000000000000000, -0.8428107282947455700 ) ) ;
#196 = CARTESIAN_POINT ( 'NONE',  ( -3.093832821467248400, -124.0000000000000000, -0.4551177932791628000 ) ) ;
#197 = CARTESIAN_POINT ( 'NONE',  ( -4.793435289654085300, 0.0000000000000000000, -0.9287819614860924900 ) ) ;
#198 = CARTESIAN_POINT ( 'NONE',  ( -2.588455056413206700, -124.0000000000000000, -0.5015422592024899600 ) ) ;
#199 = CARTESIAN_POINT ( 'NONE',  ( -3.941448617018598300, 0.0000000000000000000, -0.9719847940486598900 ) ) ;
#200 = CARTESIAN_POINT ( 'NONE',  ( -2.128382253190042900, -124.0000000000000000, -0.5248717887862763800 ) ) ;
#201 = CARTESIAN_POINT ( 'NONE',  ( -2.888941375729575000, 0.0000000000000000000, -0.9897154029483065100 ) ) ;
#202 = CARTESIAN_POINT ( 'NONE',  ( -1.560028342893971000, -124.0000000000000000, -0.5344463175920855000 ) ) ;
#203 = CARTESIAN_POINT ( 'NONE',  ( -1.474147287686568000, 0.0000000000000000000, -0.9708110264468814400 ) ) ;
#204 = CARTESIAN_POINT ( 'NONE',  ( -0.7960395353507464500, -124.0000000000000000, -0.5242379542813160300 ) ) ;
#205 = CARTESIAN_POINT ( 'NONE',  ( 0.2153169111018801700, 0.0000000000000000000, -0.8878149379583725200 ) ) ;
#206 = CARTESIAN_POINT ( 'NONE',  ( 0.1162711319950153100, -124.0000000000000000, -0.4794200664975213400 ) ) ;
#207 = CARTESIAN_POINT ( 'NONE',  ( 2.026492874912963100, 0.0000000000000000000, -0.7549625911558997000 ) ) ;
#208 = CARTESIAN_POINT ( 'NONE',  ( 1.094306152453000000, -124.0000000000000000, -0.4076797992241856200 ) ) ;
#209 = CARTESIAN_POINT ( 'NONE',  ( 4.146193975498805500, 0.0000000000000000000, -0.5637781048041855500 ) ) ;
#210 = CARTESIAN_POINT ( 'NONE',  ( 2.238944746769354800, -124.0000000000000000, -0.3044401765942603100 ) ) ;
#211 = CARTESIAN_POINT ( 'NONE',  ( 5.737352486345349300, 0.0000000000000000000, -0.3885523381698643400 ) ) ;
#212 = CARTESIAN_POINT ( 'NONE',  ( 3.098170342626489000, -124.0000000000000000, -0.2098182626117268400 ) ) ;
#213 = CARTESIAN_POINT ( 'NONE',  ( 6.753123521295151500, 0.0000000000000000000, -0.2642227977741054600 ) ) ;
#214 = CARTESIAN_POINT ( 'NONE',  ( 3.646686701499382000, -124.0000000000000000, -0.1426803107980169600 ) ) ;
#215 = CARTESIAN_POINT ( 'NONE',  ( 7.163123521295153400, 0.0000000000000000000, 1.700108153215862400E-011 ) ) ;
#216 = CARTESIAN_POINT ( 'NONE',  ( 3.646686701499382000, -124.0000000000000000, -0.1426803107980169600 ) ) ;
#217 = DIRECTION ( 'NONE',  ( 0.0000000000000000000, 1.000000000000000000, 0.0000000000000000000 ) ) ;
#218 = DIRECTION ( 'NONE',  ( 0.0000000000000000000, -0.0000000000000000000, 1.000000000000000000 ) ) ;
#219 = PLANE ( 'NONE',  #9 ) ;
#220 = CARTESIAN_POINT ( 'NONE',  ( 3.646686701499382500, -124.0000000000000000, 0.1426803108605887200 ) ) ;
#221 = DIRECTION ( 'NONE',  ( 0.0000000000000000000, 1.000000000000000000, 0.0000000000000000000 ) ) ;
#222 = DIRECTION ( 'NONE',  ( 0.0000000000000000000, -0.0000000000000000000, 1.000000000000000000 ) ) ;
#223 = CARTESIAN_POINT ( 'NONE',  ( 6.753123521295151500, 0.0000000000000000000, -0.2642227977741054600 ) ) ;
#224 = DIRECTION ( 'NONE',  ( 0.0000000000000000000, 0.0000000000000000000, 1.000000000000000000 ) ) ;
#225 = CARTESIAN_POINT ( 'NONE',  ( 7.573123521295153500, 0.0000000000000000000, -2.393468723996955400E-011 ) ) ;
#226 = CARTESIAN_POINT ( 'NONE',  ( 4.089486701499381200, -124.0000000000000000, -1.292475376940896400E-011 ) ) ;
#227 = CARTESIAN_POINT ( 'NONE',  ( 6.753123521295151500, 0.0000000000000000000, 0.2642227978899791600 ) ) ;
#228 = CARTESIAN_POINT ( 'NONE',  ( 3.646686701499382000, -124.0000000000000000, 0.1426803108605887400 ) ) ;
#229 = CARTESIAN_POINT ( 'NONE',  ( 6.753123521295151500, 0.0000000000000000000, -0.2642227977741054600 ) ) ;
#230 = CARTESIAN_POINT ( 'NONE',  ( 6.753123521295152400, 0.0000000000000000000, 0.2642227978899791000 ) ) ;
#231 = CARTESIAN_POINT ( 'NONE',  ( 3.646686701499382000, -124.0000000000000000, -0.1426803107980169600 ) ) ;
#232 = CARTESIAN_POINT ( 'NONE',  ( 0.0000000000000000000, 0.0000000000000000000, 0.0000000000000000000 ) ) ;
#233 =( LENGTH_UNIT ( ) NAMED_UNIT ( * ) SI_UNIT ( .CENTI., .METRE. ) );
#234 =( NAMED_UNIT ( * ) PLANE_ANGLE_UNIT ( ) SI_UNIT ( $, .RADIAN. ) );
#235 =( NAMED_UNIT ( * ) SI_UNIT ( $, .STERADIAN. ) SOLID_ANGLE_UNIT ( ) );
#236 = APPLICATION_PROTOCOL_DEFINITION ( 'international standard', 'config_control_design', 1994, #237 ) ;
#237 = APPLICATION_CONTEXT ( 'configuration controlled 3d designs of mechanical parts and assemblies' ) ;
#238 = DIRECTION ( 'NONE',  ( 1.000000000000000000, 0.0000000000000000000, 0.0000000000000000000 ) ) ;
#239 = MECHANICAL_CONTEXT ( 'NONE', #237, 'mechanical' ) ;
#240 = PERSON_AND_ORGANIZATION_ROLE ( 'design_owner' ) ;
#241 = APPLICATION_CONTEXT ( 'configuration controlled 3d designs of mechanical parts and assemblies' ) ;
#242 = APPLICATION_PROTOCOL_DEFINITION ( 'international standard', 'config_control_design', 1994, #241 ) ;
#243 = APPROVAL_STATUS ( 'not_yet_approved' ) ;
#244 = APPROVAL_ROLE ( '' ) ;
#245 = PERSON_AND_ORGANIZATION_ROLE ( 'creator' ) ;
#246 = DATE_TIME_ROLE ( 'creation_date' ) ;
#247 = APPROVAL_STATUS ( 'not_yet_approved' ) ;
#248 = APPROVAL_ROLE ( '' ) ;
#249 = PERSON_AND_ORGANIZATION_ROLE ( 'creator' ) ;
#250 = PERSON_AND_ORGANIZATION_ROLE ( 'design_supplier' ) ;
#251 = SECURITY_CLASSIFICATION_LEVEL ( 'unclassified' ) ;
#252 = PERSON_AND_ORGANIZATION_ROLE ( 'classification_officer' ) ;
#253 = DATE_TIME_ROLE ( 'classification_date' ) ;
#254 = APPROVAL_STATUS ( 'not_yet_approved' ) ;
#255 = APPROVAL_ROLE ( '' ) ;
#256 = B_SPLINE_SURFACE_WITH_KNOTS ( 'NONE', 3, 1, ( 
 ( #137, #163 ),
 ( #165, #166 ),
 ( #167, #168 ),
 ( #169, #170 ),
 ( #171, #172 ),
 ( #173, #174 ),
 ( #175, #176 ),
 ( #177, #178 ),
 ( #179, #180 ),
 ( #181, #182 ),
 ( #183, #184 ),
 ( #185, #186 ),
 ( #187, #188 ),
 ( #189, #190 ),
 ( #191, #192 ),
 ( #193, #194 ),
 ( #195, #196 ),
 ( #197, #198 ),
 ( #199, #200 ),
 ( #201, #202 ),
 ( #203, #204 ),
 ( #205, #206 ),
 ( #207, #208 ),
 ( #209, #210 ),
 ( #211, #212 ),
 ( #213, #214 ) ),
 .UNSPECIFIED., .F., .F., .F.,
 ( 4, 1, 1, 1, 1, 1, 1, 1, 1, 1, 1, 1, 1, 1, 1, 1, 1, 1, 1, 1, 1, 1, 1, 4 ),
 ( 2, 2 ),
 ( 0.0000000000000000000, 0.1035278198041241800, 0.1619304335144646800, 0.2153023416597342800, 0.2872407577215783100, 0.3330216932246278200, 0.3583978743684841400, 0.3937606012341285900, 0.4191485008683562000, 0.4539325451132260000, 0.4805475237701480900, 0.4901269922741498000, 0.5003057268296673400, 0.5194525094006279300, 0.5460674548844664000, 0.5808514991398363600, 0.6062393987654164400, 0.6416021256291631900, 0.6669783067748364900, 0.7127592422779673900, 0.7846976583398115300, 0.8380695664850810200, 0.8964721801954216300, 1.000000000000000000 ),
 ( 0.0000000000000000000, 1.000000000000000000 ),
 .UNSPECIFIED. ) ;
#257 = CC_DESIGN_SECURITY_CLASSIFICATION ( #21, ( #17 ) ) ;
#258 = CC_DESIGN_APPROVAL ( #25, ( #21 ) ) ;
#259 = PRODUCT_RELATED_PRODUCT_CATEGORY ( 'detail', '', ( #32 ) ) ;
#260 = ADVANCED_BREP_SHAPE_REPRESENTATION ( 'keel_6forAnalysisGC', ( #265, #10 ), #8 ) ;
#261 = UNCERTAINTY_MEASURE_WITH_UNIT (LENGTH_MEASURE( 1.000000000000000100E-005 ), #233, 'distance_accuracy_value', 'NONE');
#262 = B_SPLINE_CURVE_WITH_KNOTS ( 'NONE', 3,
 ( #135, #134, #139, #140, #141, #142, #143, #144, #145, #146, #147, #148, #149, #150, #151, #152, #153, #154, #155, #156, #157, #158, #159, #160, #161, #162 ),
 .UNSPECIFIED., .F., .F.,
 ( 4, 1, 1, 1, 1, 1, 1, 1, 1, 1, 1, 1, 1, 1, 1, 1, 1, 1, 1, 1, 1, 1, 1, 4 ),
 ( 0.0000000000000000000, 0.1035278198045783100, 0.1619304335149189500, 0.2153023416601884700, 0.2872407577220325600, 0.3330216932251634500, 0.3583978743708368100, 0.3937606012345835600, 0.4191485008601637000, 0.4539325451155336600, 0.4805474905993721300, 0.4996942731703327100, 0.5098730077258502000, 0.5194524762298519100, 0.5460674548867740000, 0.5808514991316438000, 0.6062393987658714100, 0.6416021256315158600, 0.6669783067753721800, 0.7127592422784216900, 0.7846976583402657200, 0.8380695664855353200, 0.8964721801958758200, 1.000000000000000000 ),
 .UNSPECIFIED. ) ;
#263 = B_SPLINE_CURVE_WITH_KNOTS ( 'NONE', 3,
 ( #106, #105, #104, #103, #102, #100, #107, #108, #109, #110, #111, #112, #113, #114, #115, #116, #117, #118, #119, #120, #121, #122, #123, #124, #125, #126 ),
 .UNSPECIFIED., .F., .F.,
 ( 4, 1, 1, 1, 1, 1, 1, 1, 1, 1, 1, 1, 1, 1, 1, 1, 1, 1, 1, 1, 1, 1, 1, 4 ),
 ( 0.0000000000000000000, 0.1035278198045783100, 0.1619304335149189500, 0.2153023416601884700, 0.2872407577220325600, 0.3330216932251634500, 0.3583978743708368100, 0.3937606012345835600, 0.4191485008601637000, 0.4539325451155336600, 0.4805474905993721300, 0.4996942731703327100, 0.5098730077258502000, 0.5194524762298519100, 0.5460674548867740000, 0.5808514991316438000, 0.6062393987658714100, 0.6416021256315158600, 0.6669783067753721800, 0.7127592422784216900, 0.7846976583402657200, 0.8380695664855353200, 0.8964721801958758200, 1.000000000000000000 ),
 .UNSPECIFIED. ) ;
#264 = B_SPLINE_CURVE_WITH_KNOTS ( 'NONE', 2,
 ( #131, #133, #136 ),
 .UNSPECIFIED., .F., .F.,
 ( 3, 3 ),
 ( 0.0000000000000000000, 1.000000000000000000 ),
 .UNSPECIFIED. ) ;
#265 = MANIFOLD_SOLID_BREP ( 'Loft1', #57 ) ;
#266 = B_SPLINE_CURVE_WITH_KNOTS ( 'NONE', 2,
 ( #132, #129, #128 ),
 .UNSPECIFIED., .F., .F.,
 ( 3, 3 ),
 ( 0.0000000000000000000, 1.000000000000000000 ),
 .UNSPECIFIED. ) ;
#267 = B_SPLINE_SURFACE_WITH_KNOTS ( 'NONE', 2, 1, ( 
 ( #223, #216 ),
 ( #225, #226 ),
 ( #227, #228 ) ),
 .UNSPECIFIED., .F., .F., .F.,
 ( 3, 3 ),
 ( 2, 2 ),
 ( 0.0000000000000000000, 1.000000000000000000 ),
 ( 0.0000000000000000000, 1.000000000000000000 ),
 .UNSPECIFIED. ) ;
ENDSEC;
END-ISO-10303-21;
