ISO-10303-21;
HEADER;
FILE_DESCRIPTION (( 'STEP AP214' ),
    '1' );
FILE_NAME ('get u started.STEP',
    '2018-05-03T11:52:40',
    ( '' ),
    ( '' ),
    'SwSTEP 2.0',
    'SolidWorks 2016',
    '' );
FILE_SCHEMA (( 'AUTOMOTIVE_DESIGN' ));
ENDSEC;

DATA;
#1 = CARTESIAN_POINT ( 'NONE',  ( -1.611679814241115500, 50.78331755930287300, 35.17162895957535800 ) ) ;
#2 = ADVANCED_BREP_SHAPE_REPRESENTATION ( 'get u started', ( #126, #39 ), #102 ) ;
#3 = FACE_OUTER_BOUND ( 'NONE', #139, .T. ) ;
#4 = ORIENTED_EDGE ( 'NONE', *, *, #226, .F. ) ;
#5 = APPLICATION_CONTEXT ( 'automotive_design' ) ;
#6 = CARTESIAN_POINT ( 'NONE',  ( 13.99999999999999800, 116.4117171066237800, -30.99999999999999300 ) ) ;
#7 = VECTOR ( 'NONE', #236, 999.9999999999998900 ) ;
#8 =( NAMED_UNIT ( * ) SI_UNIT ( $, .STERADIAN. ) SOLID_ANGLE_UNIT ( ) );
#9 = STYLED_ITEM ( 'NONE', ( #207 ), #2 ) ;
#10 = EDGE_LOOP ( 'NONE', ( #4, #121, #166, #280 ) ) ;
#11 = FACE_OUTER_BOUND ( 'NONE', #44, .T. ) ;
#12 = FACE_OUTER_BOUND ( 'NONE', #216, .T. ) ;
#13 = FILL_AREA_STYLE ('',( #251 ) ) ;
#14 = ORIENTED_EDGE ( 'NONE', *, *, #210, .F. ) ;
#15 = CARTESIAN_POINT ( 'NONE',  ( 13.99999999999999600, 53.60181517026091300, 31.00000000000000700 ) ) ;
#16 = DIRECTION ( 'NONE',  ( 0.0000000000000000000, -0.4226182617406940600, 0.9063077870366526000 ) ) ;
#17 = CARTESIAN_POINT ( 'NONE',  ( 13.99999999999998900, 33.04520074192116400, 59.00000000000000700 ) ) ;
#18 = UNCERTAINTY_MEASURE_WITH_UNIT (LENGTH_MEASURE( 1.000000000000000100E-005 ), #227, 'distance_accuracy_value', 'NONE');
#19 = VERTEX_POINT ( 'NONE', #132 ) ;
#20 = SURFACE_SIDE_STYLE ('',( #199 ) ) ;
#21 = EDGE_LOOP ( 'NONE', ( #254 ) ) ;
#22 = ORIENTED_EDGE ( 'NONE', *, *, #123, .T. ) ;
#23 =( BOUNDED_CURVE ( )  B_SPLINE_CURVE ( 3, ( #253, #198, #63, #86 ),
 .UNSPECIFIED., .F., .T. ) 
 B_SPLINE_CURVE_WITH_KNOTS ( ( 4, 4 ),
 ( 2.309267063154121700, 5.450859716743915200 ),
 .UNSPECIFIED. ) 
 CURVE ( )  GEOMETRIC_REPRESENTATION_ITEM ( )  RATIONAL_B_SPLINE_CURVE ( ( 1.000000000000000000, 0.3333333333333332000, 0.3333333333333332000, 1.000000000000000000 ) ) 
 REPRESENTATION_ITEM ( '' )  );
#24 = FACE_OUTER_BOUND ( 'NONE', #147, .T. ) ;
#25 = CARTESIAN_POINT ( 'NONE',  ( 1.346315620981919100, 58.28331755930286600, 32.47899771761152000 ) ) ;
#26 = DIRECTION ( 'NONE',  ( 0.3590518024015307800, 0.8458730381409442800, 0.3944370755119513400 ) ) ;
#27 = ORIENTED_EDGE ( 'NONE', *, *, #93, .T. ) ;
#28 = ORIENTED_EDGE ( 'NONE', *, *, #36, .T. ) ;
#29 = ORIENTED_EDGE ( 'NONE', *, *, #99, .F. ) ;
#30 = PRESENTATION_LAYER_ASSIGNMENT (  '', '', ( #190 ) ) ;
#31 = ADVANCED_FACE ( 'NONE', ( #77 ), #60, .F. ) ;
#32 = ORIENTED_EDGE ( 'NONE', *, *, #123, .F. ) ;
#33 = ADVANCED_FACE ( 'NONE', ( #24 ), #162, .T. ) ;
#34 = VERTEX_POINT ( 'NONE', #252 ) ;
#35 = VECTOR ( 'NONE', #134, 999.9999999999998900 ) ;
#36 = EDGE_CURVE ( 'NONE', #225, #73, #46, .T. ) ;
#37 = CARTESIAN_POINT ( 'NONE',  ( 1.611679814241109700, 89.71668244069717000, -35.17162895957533700 ) ) ;
#38 = VERTEX_POINT ( 'NONE', #98 ) ;
#39 = AXIS2_PLACEMENT_3D ( 'NONE', #59, #127, #277 ) ;
#40 = VECTOR ( 'NONE', #217, 1000.000000000000000 ) ;
#41 = PRODUCT_DEFINITION_CONTEXT ( 'detailed design', #5, 'design' ) ;
#42 = DIRECTION ( 'NONE',  ( 0.0000000000000000000, -1.000000000000000000, 0.0000000000000000000 ) ) ;
#43 = DIRECTION ( 'NONE',  ( -2.535795797795273600E-017, -0.4226182617406940600, 0.9063077870366526000 ) ) ;
#44 = EDGE_LOOP ( 'NONE', ( #156, #50, #116, #14 ) ) ;
#45 = EDGE_CURVE ( 'NONE', #250, #225, #104, .T. ) ;
#46 =( BOUNDED_CURVE ( )  B_SPLINE_CURVE ( 3, ( #136, #191, #49, #177 ),
 .UNSPECIFIED., .F., .F. ) 
 B_SPLINE_CURVE_WITH_KNOTS ( ( 4, 4 ),
 ( 2.309267063154121700, 5.450859716743915200 ),
 .UNSPECIFIED. ) 
 CURVE ( )  GEOMETRIC_REPRESENTATION_ITEM ( )  RATIONAL_B_SPLINE_CURVE ( ( 1.000000000000000000, 0.3333333333333332000, 0.3333333333333332000, 1.000000000000000000 ) ) 
 REPRESENTATION_ITEM ( '' )  );
#47 = CARTESIAN_POINT ( 'NONE',  ( 13.99999999999999600, 48.40188777755059800, 26.06747837599275300 ) ) ;
#48 = PRODUCT_RELATED_PRODUCT_CATEGORY ( 'part', '', ( #171 ) ) ;
#49 = CARTESIAN_POINT ( 'NONE',  ( 14.00000000000001200, 88.06950440421016400, -59.00000000000001400 ) ) ;
#50 = ORIENTED_EDGE ( 'NONE', *, *, #188, .T. ) ;
#51 = CARTESIAN_POINT ( 'NONE',  ( 13.99999999999999600, 55.90188777755059800, 26.06747837599275300 ) ) ;
#52 = ADVANCED_FACE ( 'NONE', ( #148, #230, #218 ), #117, .T. ) ;
#53 = PLANE ( 'NONE',  #240 ) ;
#54 = ADVANCED_FACE ( 'NONE', ( #97, #181 ), #145, .F. ) ;
#55 = LINE ( 'NONE', #47, #237 ) ;
#56 = ORIENTED_EDGE ( 'NONE', *, *, #45, .F. ) ;
#57 = ADVANCED_FACE ( 'NONE', ( #12, #71, #131 ), #53, .F. ) ;
#58 = DIRECTION ( 'NONE',  ( -1.000000000000000000, 0.0000000000000000000, -2.797941090285172700E-017 ) ) ;
#59 = CARTESIAN_POINT ( 'NONE',  ( 0.0000000000000000000, 0.0000000000000000000, 0.0000000000000000000 ) ) ;
#60 = PLANE ( 'NONE',  #64 ) ;
#61 = UNCERTAINTY_MEASURE_WITH_UNIT (LENGTH_MEASURE( 1.000000000000000100E-005 ), #200, 'distance_accuracy_value', 'NONE');
#62 = DIRECTION ( 'NONE',  ( 0.0000000000000000000, -1.000000000000000000, 0.0000000000000000000 ) ) ;
#63 = CARTESIAN_POINT ( 'NONE',  ( 14.00000000000001200, 95.56950440421015000, -59.00000000000001400 ) ) ;
#64 = AXIS2_PLACEMENT_3D ( 'NONE', #238, #113, #75 ) ;
#65 = ORIENTED_EDGE ( 'NONE', *, *, #36, .F. ) ;
#66 = CARTESIAN_POINT ( 'NONE',  ( 1.346315620981919100, 50.78331755930286600, 32.47899771761152000 ) ) ;
#67 = ORIENTED_EDGE ( 'NONE', *, *, #178, .F. ) ;
#68 = ORIENTED_EDGE ( 'NONE', *, *, #263, .F. ) ;
#69 = CARTESIAN_POINT ( 'NONE',  ( 1.611679814241115500, 60.80560763508770300, 26.82837104042464200 ) ) ;
#70 = DIRECTION ( 'NONE',  ( 0.0000000000000000000, -1.000000000000000000, 0.0000000000000000000 ) ) ;
#71 = FACE_BOUND ( 'NONE', #133, .T. ) ;
#72 = UNCERTAINTY_MEASURE_WITH_UNIT (LENGTH_MEASURE( 1.000000000000000100E-005 ), #84, 'distance_accuracy_value', 'NONE');
#73 = VERTEX_POINT ( 'NONE', #179 ) ;
#74 =( NAMED_UNIT ( * ) SI_UNIT ( $, .STERADIAN. ) SOLID_ANGLE_UNIT ( ) );
#75 = DIRECTION ( 'NONE',  ( -2.797941090285172700E-017, 0.0000000000000000000, -1.000000000000000000 ) ) ;
#76 = FACE_OUTER_BOUND ( 'NONE', #10, .T. ) ;
#77 = FACE_OUTER_BOUND ( 'NONE', #194, .T. ) ;
#78 = AXIS2_PLACEMENT_3D ( 'NONE', #235, #129, #16 ) ;
#79 = CARTESIAN_POINT ( 'NONE',  ( -4.304311056204946700, 82.21668244069715600, -29.78636647564766100 ) ) ;
#80 = EDGE_CURVE ( 'NONE', #73, #34, #55, .T. ) ;
#81 = CARTESIAN_POINT ( 'NONE',  ( 6.988059069339573500E-016, 116.4117171066237800, 31.00000000000000700 ) ) ;
#82 = CARTESIAN_POINT ( 'NONE',  ( -13.99999999999999800, 94.39818482973910800, -30.99999999999999300 ) ) ;
#83 = ORIENTED_EDGE ( 'NONE', *, *, #80, .T. ) ;
#84 =( LENGTH_UNIT ( ) NAMED_UNIT ( * ) SI_UNIT ( .MILLI., .METRE. ) );
#85 = AXIS2_PLACEMENT_3D ( 'NONE', #6, #58, #224 ) ;
#86 = CARTESIAN_POINT ( 'NONE',  ( 13.99999999999999800, 82.51288997587038000, -30.99999999999998900 ) ) ;
#87 = EDGE_CURVE ( 'NONE', #150, #34, #274, .T. ) ;
#88 = DIRECTION ( 'NONE',  ( 0.0000000000000000000, 0.0000000000000000000, -1.000000000000000000 ) ) ;
#89 = CARTESIAN_POINT ( 'NONE',  ( 13.99999999999998900, 40.54520074192117100, 59.00000000000000700 ) ) ;
#90 = CARTESIAN_POINT ( 'NONE',  ( 1.346315620981918000, 87.19439236491233200, -29.52100228238847600 ) ) ;
#91 = CYLINDRICAL_SURFACE ( 'NONE', #153, 1.999999999999998200 ) ;
#92 = CARTESIAN_POINT ( 'NONE',  ( -1.611679814241115500, 58.28331755930287300, 35.17162895957535800 ) ) ;
#93 = EDGE_CURVE ( 'NONE', #122, #225, #229, .T. ) ;
#94 = CARTESIAN_POINT ( 'NONE',  ( -1.346315620981918500, 89.71668244069717000, -32.47899771761149900 ) ) ;
#95 = CARTESIAN_POINT ( 'NONE',  ( 4.304311056204946700, 87.19439236491233200, -32.21363352435231100 ) ) ;
#96 = ORIENTED_EDGE ( 'NONE', *, *, #263, .T. ) ;
#97 = FACE_OUTER_BOUND ( 'NONE', #196, .T. ) ;
#98 = CARTESIAN_POINT ( 'NONE',  ( 13.99999999999999800, 82.51288997587038000, -30.99999999999998900 ) ) ;
#99 = EDGE_CURVE ( 'NONE', #122, #38, #23, .T. ) ;
#100 = CARTESIAN_POINT ( 'NONE',  ( 13.99999999999999600, 46.10181517026092000, 31.00000000000000700 ) ) ;
#101 = CARTESIAN_POINT ( 'NONE',  ( -1.346315620981918500, 82.21668244069715600, -32.47899771761149900 ) ) ;
#102 =( GEOMETRIC_REPRESENTATION_CONTEXT ( 3 ) GLOBAL_UNCERTAINTY_ASSIGNED_CONTEXT ( ( #72 ) ) GLOBAL_UNIT_ASSIGNED_CONTEXT ( ( #84, #165, #124 ) ) REPRESENTATION_CONTEXT ( 'NONE', 'WORKASPACE' ) );
#103 = PRODUCT_DEFINITION_SHAPE ( 'NONE', 'NONE',  #221 ) ;
#104 = LINE ( 'NONE', #232, #35 ) ;
#105 = DIRECTION ( 'NONE',  ( 0.0000000000000000000, 0.0000000000000000000, -1.000000000000000000 ) ) ;
#106 =( BOUNDED_CURVE ( )  B_SPLINE_CURVE ( 3, ( #100, #17, #202, #197 ),
 .UNSPECIFIED., .F., .T. ) 
 B_SPLINE_CURVE_WITH_KNOTS ( ( 4, 4 ),
 ( 5.450859716743915200, 8.592452370333708300 ),
 .UNSPECIFIED. ) 
 CURVE ( )  GEOMETRIC_REPRESENTATION_ITEM ( )  RATIONAL_B_SPLINE_CURVE ( ( 1.000000000000000000, 0.3333333333333333700, 0.3333333333333333700, 1.000000000000000000 ) ) 
 REPRESENTATION_ITEM ( '' )  );
#107 = CARTESIAN_POINT ( 'NONE',  ( 6.988059069339573500E-016, 116.4117171066237800, -30.99999999999999300 ) ) ;
#108 = EDGE_LOOP ( 'NONE', ( #151 ) ) ;
#109 =( BOUNDED_CURVE ( )  B_SPLINE_CURVE ( 3, ( #66, #1, #262, #257, #242, #266, #185 ),
 .UNSPECIFIED., .T., .T. ) 
 B_SPLINE_CURVE_WITH_KNOTS ( ( 4, 3, 4 ),
 ( 6.505213034913009800E-016, 3.141592653589793600, 6.283185307179587100 ),
 .UNSPECIFIED. ) 
 CURVE ( )  GEOMETRIC_REPRESENTATION_ITEM ( )  RATIONAL_B_SPLINE_CURVE ( ( 1.000000000000000000, 0.3333333333333333700, 0.3333333333333333700, 1.000000000000000000, 0.3333333333333332000, 0.3333333333333332000, 1.000000000000000000 ) ) 
 REPRESENTATION_ITEM ( '' )  );
#110 = APPLICATION_PROTOCOL_DEFINITION ( 'draft international standard', 'automotive_design', 1998, #209 ) ;
#111 =( NAMED_UNIT ( * ) PLANE_ANGLE_UNIT ( ) SI_UNIT ( $, .RADIAN. ) );
#112 = PRODUCT_DEFINITION_FORMATION_WITH_SPECIFIED_SOURCE ( 'ANY', '', #171, .NOT_KNOWN. ) ;
#113 = DIRECTION ( 'NONE',  ( 1.000000000000000000, 0.0000000000000000000, -2.797941090285172700E-017 ) ) ;
#114 =( GEOMETRIC_REPRESENTATION_CONTEXT ( 3 ) GLOBAL_UNCERTAINTY_ASSIGNED_CONTEXT ( ( #61 ) ) GLOBAL_UNIT_ASSIGNED_CONTEXT ( ( #200, #111, #8 ) ) REPRESENTATION_CONTEXT ( 'NONE', 'WORKASPACE' ) );
#115 = CARTESIAN_POINT ( 'NONE',  ( 4.304311056204955600, 58.28331755930286600, 29.78636647564767900 ) ) ;
#116 = ORIENTED_EDGE ( 'NONE', *, *, #241, .T. ) ;
#117 = PLANE ( 'NONE',  #78 ) ;
#118 = CARTESIAN_POINT ( 'NONE',  ( 22.47470568210500400, 45.44708855238056300, 24.68963286898553000 ) ) ;
#119 = DIRECTION ( 'NONE',  ( 0.0000000000000000000, -1.000000000000000000, 0.0000000000000000000 ) ) ;
#120 = AXIS2_PLACEMENT_3D ( 'NONE', #81, #119, #88 ) ;
#121 = ORIENTED_EDGE ( 'NONE', *, *, #286, .T. ) ;
#122 = VERTEX_POINT ( 'NONE', #82 ) ;
#123 = EDGE_CURVE ( 'NONE', #161, #161, #109, .T. ) ;
#124 =( NAMED_UNIT ( * ) SI_UNIT ( $, .STERADIAN. ) SOLID_ANGLE_UNIT ( ) );
#125 = ADVANCED_FACE ( 'NONE', ( #3, #159 ), #91, .F. ) ;
#126 = MANIFOLD_SOLID_BREP ( 'Cut-Extrude2', #223 ) ;
#127 = DIRECTION ( 'NONE',  ( 0.0000000000000000000, 0.0000000000000000000, 1.000000000000000000 ) ) ;
#128 = PRODUCT_CONTEXT ( 'NONE', #209, 'mechanical' ) ;
#129 = DIRECTION ( 'NONE',  ( 0.3590518024015307800, 0.8458730381409442800, 0.3944370755119513400 ) ) ;
#130 = CARTESIAN_POINT ( 'NONE',  ( 1.346315620981921400, 50.78331755930286600, 32.47899771761152000 ) ) ;
#131 = FACE_BOUND ( 'NONE', #108, .T. ) ;
#132 = CARTESIAN_POINT ( 'NONE',  ( 1.346315620981921400, 58.28331755930286600, 32.47899771761152000 ) ) ;
#133 = EDGE_LOOP ( 'NONE', ( #32 ) ) ;
#134 = DIRECTION ( 'NONE',  ( -2.535795797795273600E-017, 0.4226182617406940600, -0.9063077870366526000 ) ) ;
#135 =( GEOMETRIC_REPRESENTATION_CONTEXT ( 3 ) GLOBAL_UNCERTAINTY_ASSIGNED_CONTEXT ( ( #18 ) ) GLOBAL_UNIT_ASSIGNED_CONTEXT ( ( #227, #268, #74 ) ) REPRESENTATION_CONTEXT ( 'NONE', 'WORKASPACE' ) );
#136 = CARTESIAN_POINT ( 'NONE',  ( -13.99999999999999800, 86.89818482973909400, -30.99999999999999300 ) ) ;
#137 = VECTOR ( 'NONE', #70, 1000.000000000000000 ) ;
#138 =( BOUNDED_CURVE ( )  B_SPLINE_CURVE ( 3, ( #231, #285, #144, #94, #37, #95, #90 ),
 .UNSPECIFIED., .T., .F. ) 
 B_SPLINE_CURVE_WITH_KNOTS ( ( 4, 3, 4 ),
 ( 2.168404344971005700E-016, 3.141592653589793100, 6.283185307179586200 ),
 .UNSPECIFIED. ) 
 CURVE ( )  GEOMETRIC_REPRESENTATION_ITEM ( )  RATIONAL_B_SPLINE_CURVE ( ( 1.000000000000000000, 0.3333333333333333700, 0.3333333333333333700, 1.000000000000000000, 0.3333333333333333700, 0.3333333333333333700, 1.000000000000000000 ) ) 
 REPRESENTATION_ITEM ( '' )  );
#139 = EDGE_LOOP ( 'NONE', ( #203 ) ) ;
#140 = CARTESIAN_POINT ( 'NONE',  ( -1.346315620981919600, 60.80560763508770300, 29.52100228238848300 ) ) ;
#141 = CARTESIAN_POINT ( 'NONE',  ( 0.0000000000000000000, 116.4117171066237800, 31.00000000000000400 ) ) ;
#142 = CARTESIAN_POINT ( 'NONE',  ( -1.611679814241111100, 79.69439236491233200, -26.82837104042464200 ) ) ;
#143 = ORIENTED_EDGE ( 'NONE', *, *, #210, .T. ) ;
#144 = CARTESIAN_POINT ( 'NONE',  ( -4.304311056204946700, 89.71668244069717000, -29.78636647564766100 ) ) ;
#145 = CYLINDRICAL_SURFACE ( 'NONE', #174, 2.000000000000001800 ) ;
#146 = ORIENTED_EDGE ( 'NONE', *, *, #286, .F. ) ;
#147 = EDGE_LOOP ( 'NONE', ( #214, #172, #219, #65 ) ) ;
#148 = FACE_OUTER_BOUND ( 'NONE', #220, .T. ) ;
#149 = CARTESIAN_POINT ( 'NONE',  ( -13.99999999999999800, 86.89818482973909400, -30.99999999999999300 ) ) ;
#150 = VERTEX_POINT ( 'NONE', #15 ) ;
#151 = ORIENTED_EDGE ( 'NONE', *, *, #247, .F. ) ;
#152 = CARTESIAN_POINT ( 'NONE',  ( 13.99999999999999600, 53.60181517026091300, 31.00000000000000700 ) ) ;
#153 = AXIS2_PLACEMENT_3D ( 'NONE', #163, #42, #158 ) ;
#154 = COLOUR_RGB ( '',0.7529411764705882200, 0.7529411764705882200, 0.7529411764705882200 ) ;
#155 = FILL_AREA_STYLE ('',( #248 ) ) ;
#156 = ORIENTED_EDGE ( 'NONE', *, *, #87, .F. ) ;
#157 = CARTESIAN_POINT ( 'NONE',  ( -14.00000000000001100, 52.43049559578990700, 59.00000000000000700 ) ) ;
#158 = DIRECTION ( 'NONE',  ( 0.0000000000000000000, 0.0000000000000000000, -1.000000000000000000 ) ) ;
#159 = FACE_OUTER_BOUND ( 'NONE', #21, .T. ) ;
#160 =( BOUNDED_CURVE ( )  B_SPLINE_CURVE ( 3, ( #152, #89, #157, #284 ),
 .UNSPECIFIED., .F., .F. ) 
 B_SPLINE_CURVE_WITH_KNOTS ( ( 4, 4 ),
 ( 5.450859716743915200, 8.592452370333708300 ),
 .UNSPECIFIED. ) 
 CURVE ( )  GEOMETRIC_REPRESENTATION_ITEM ( )  RATIONAL_B_SPLINE_CURVE ( ( 1.000000000000000000, 0.3333333333333333700, 0.3333333333333333700, 1.000000000000000000 ) ) 
 REPRESENTATION_ITEM ( '' )  );
#161 = VERTEX_POINT ( 'NONE', #130 ) ;
#162 = CYLINDRICAL_SURFACE ( 'NONE', #187, 13.99999999999999800 ) ;
#163 = CARTESIAN_POINT ( 'NONE',  ( 0.0000000000000000000, 116.4117171066237800, -30.99999999999998900 ) ) ;
#164 = EDGE_CURVE ( 'NONE', #212, #212, #138, .T. ) ;
#165 =( NAMED_UNIT ( * ) PLANE_ANGLE_UNIT ( ) SI_UNIT ( $, .RADIAN. ) );
#166 = ORIENTED_EDGE ( 'NONE', *, *, #87, .T. ) ;
#167 = CARTESIAN_POINT ( 'NONE',  ( 4.304311056204946700, 79.69439236491233200, -32.21363352435231100 ) ) ;
#168 = CARTESIAN_POINT ( 'NONE',  ( 1.346315620981918000, 79.69439236491233200, -29.52100228238847600 ) ) ;
#169 = MECHANICAL_DESIGN_GEOMETRIC_PRESENTATION_REPRESENTATION (  '', ( #190 ), #135 ) ;
#170 = CARTESIAN_POINT ( 'NONE',  ( 1.611679814241109700, 82.21668244069715600, -35.17162895957533700 ) ) ;
#171 = PRODUCT ( 'get u started', 'get u started', '', ( #128 ) ) ;
#172 = ORIENTED_EDGE ( 'NONE', *, *, #99, .T. ) ;
#173 = VERTEX_POINT ( 'NONE', #184 ) ;
#174 = AXIS2_PLACEMENT_3D ( 'NONE', #141, #175, #215 ) ;
#175 = DIRECTION ( 'NONE',  ( 0.0000000000000000000, -1.000000000000000000, 0.0000000000000000000 ) ) ;
#176 = ORIENTED_EDGE ( 'NONE', *, *, #178, .T. ) ;
#177 = CARTESIAN_POINT ( 'NONE',  ( 13.99999999999999800, 75.01288997587038000, -30.99999999999999300 ) ) ;
#178 = EDGE_CURVE ( 'NONE', #19, #19, #205, .T. ) ;
#179 = CARTESIAN_POINT ( 'NONE',  ( 13.99999999999999800, 75.01288997587038000, -30.99999999999999300 ) ) ;
#180 = CARTESIAN_POINT ( 'NONE',  ( -13.99999999999999800, 65.66439533925401400, 30.61981041481106300 ) ) ;
#181 = FACE_OUTER_BOUND ( 'NONE', #234, .T. ) ;
#182 = EDGE_LOOP ( 'NONE', ( #176 ) ) ;
#183 = CARTESIAN_POINT ( 'NONE',  ( -13.99999999999999600, 65.48711002412964900, 31.00000000000000400 ) ) ;
#184 = CARTESIAN_POINT ( 'NONE',  ( 1.346315620981918300, 79.69439236491233200, -29.52100228238847600 ) ) ;
#185 = CARTESIAN_POINT ( 'NONE',  ( 1.346315620981919100, 50.78331755930286600, 32.47899771761152000 ) ) ;
#186 =( BOUNDED_CURVE ( )  B_SPLINE_CURVE ( 3, ( #211, #142, #79, #101, #170, #167, #168 ),
 .UNSPECIFIED., .T., .T. ) 
 B_SPLINE_CURVE_WITH_KNOTS ( ( 4, 3, 4 ),
 ( 2.168404344971005700E-016, 3.141592653589793100, 6.283185307179586200 ),
 .UNSPECIFIED. ) 
 CURVE ( )  GEOMETRIC_REPRESENTATION_ITEM ( )  RATIONAL_B_SPLINE_CURVE ( ( 1.000000000000000000, 0.3333333333333333700, 0.3333333333333333700, 1.000000000000000000, 0.3333333333333333700, 0.3333333333333333700, 1.000000000000000000 ) ) 
 REPRESENTATION_ITEM ( '' )  );
#187 = AXIS2_PLACEMENT_3D ( 'NONE', #107, #259, #105 ) ;
#188 = EDGE_CURVE ( 'NONE', #150, #279, #160, .T. ) ;
#189 = CARTESIAN_POINT ( 'NONE',  ( -13.99999999999999600, 57.98711002412963500, 31.00000000000000400 ) ) ;
#190 = STYLED_ITEM ( 'NONE', ( #281 ), #126 ) ;
#191 = CARTESIAN_POINT ( 'NONE',  ( -14.00000000000000200, 99.95479925807886400, -59.00000000000000700 ) ) ;
#192 = CARTESIAN_POINT ( 'NONE',  ( -4.304311056204952900, 60.80560763508771800, 32.21363352435232500 ) ) ;
#193 = CARTESIAN_POINT ( 'NONE',  ( 13.99999999999999600, 116.4117171066237800, 31.00000000000000700 ) ) ;
#194 = EDGE_LOOP ( 'NONE', ( #201, #96, #27, #56 ) ) ;
#195 = DIRECTION ( 'NONE',  ( 0.0000000000000000000, -0.4226182617406940600, 0.9063077870366526000 ) ) ;
#196 = EDGE_LOOP ( 'NONE', ( #67 ) ) ;
#197 = CARTESIAN_POINT ( 'NONE',  ( -13.99999999999999600, 57.98711002412963500, 31.00000000000000400 ) ) ;
#198 = CARTESIAN_POINT ( 'NONE',  ( -14.00000000000000200, 107.4547992580788600, -59.00000000000000700 ) ) ;
#199 = SURFACE_STYLE_FILL_AREA ( #155 ) ;
#200 =( LENGTH_UNIT ( ) NAMED_UNIT ( * ) SI_UNIT ( .MILLI., .METRE. ) );
#201 = ORIENTED_EDGE ( 'NONE', *, *, #241, .F. ) ;
#202 = CARTESIAN_POINT ( 'NONE',  ( -14.00000000000001100, 44.93049559578988500, 59.00000000000000700 ) ) ;
#203 = ORIENTED_EDGE ( 'NONE', *, *, #164, .F. ) ;
#204 = LINE ( 'NONE', #51, #261 ) ;
#205 =( BOUNDED_CURVE ( )  B_SPLINE_CURVE ( 3, ( #25, #92, #192, #140, #69, #115, #239 ),
 .UNSPECIFIED., .T., .F. ) 
 B_SPLINE_CURVE_WITH_KNOTS ( ( 4, 3, 4 ),
 ( 6.505213034913009800E-016, 3.141592653589793600, 6.283185307179587100 ),
 .UNSPECIFIED. ) 
 CURVE ( )  GEOMETRIC_REPRESENTATION_ITEM ( )  RATIONAL_B_SPLINE_CURVE ( ( 1.000000000000000000, 0.3333333333333333700, 0.3333333333333333700, 1.000000000000000000, 0.3333333333333332000, 0.3333333333333332000, 1.000000000000000000 ) ) 
 REPRESENTATION_ITEM ( '' )  );
#206 = ADVANCED_FACE ( 'NONE', ( #11 ), #258, .T. ) ;
#207 = PRESENTATION_STYLE_ASSIGNMENT (( #276 ) ) ;
#208 = SURFACE_SIDE_STYLE ('',( #260 ) ) ;
#209 = APPLICATION_CONTEXT ( 'automotive_design' ) ;
#210 = EDGE_CURVE ( 'NONE', #34, #250, #106, .T. ) ;
#211 = CARTESIAN_POINT ( 'NONE',  ( 1.346315620981918000, 79.69439236491233200, -29.52100228238847600 ) ) ;
#212 = VERTEX_POINT ( 'NONE', #271 ) ;
#213 = LINE ( 'NONE', #180, #7 ) ;
#214 = ORIENTED_EDGE ( 'NONE', *, *, #93, .F. ) ;
#215 = DIRECTION ( 'NONE',  ( 0.0000000000000000000, 0.0000000000000000000, -1.000000000000000000 ) ) ;
#216 = EDGE_LOOP ( 'NONE', ( #270, #28, #83, #143 ) ) ;
#217 = DIRECTION ( 'NONE',  ( 0.0000000000000000000, -1.000000000000000000, 0.0000000000000000000 ) ) ;
#218 = FACE_BOUND ( 'NONE', #255, .T. ) ;
#219 = ORIENTED_EDGE ( 'NONE', *, *, #226, .T. ) ;
#220 = EDGE_LOOP ( 'NONE', ( #29, #68, #243, #146 ) ) ;
#221 = PRODUCT_DEFINITION ( 'UNKNOWN', '', #112, #41 ) ;
#222 = LINE ( 'NONE', #256, #283 ) ;
#223 = CLOSED_SHELL ( 'NONE', ( #57, #52, #125, #54, #33, #31, #206, #244 ) ) ;
#224 = DIRECTION ( 'NONE',  ( -2.797941090285172700E-017, 0.0000000000000000000, 1.000000000000000000 ) ) ;
#225 = VERTEX_POINT ( 'NONE', #149 ) ;
#226 = EDGE_CURVE ( 'NONE', #38, #73, #222, .T. ) ;
#227 =( LENGTH_UNIT ( ) NAMED_UNIT ( * ) SI_UNIT ( .MILLI., .METRE. ) );
#228 = LINE ( 'NONE', #275, #265 ) ;
#229 = LINE ( 'NONE', #272, #40 ) ;
#230 = FACE_BOUND ( 'NONE', #182, .T. ) ;
#231 = CARTESIAN_POINT ( 'NONE',  ( 1.346315620981918000, 87.19439236491233200, -29.52100228238847600 ) ) ;
#232 = CARTESIAN_POINT ( 'NONE',  ( -13.99999999999999800, 58.16439533925400700, 30.61981041481106300 ) ) ;
#233 = DIRECTION ( 'NONE',  ( 0.0000000000000000000, -1.000000000000000000, 0.0000000000000000000 ) ) ;
#234 = EDGE_LOOP ( 'NONE', ( #22 ) ) ;
#235 = CARTESIAN_POINT ( 'NONE',  ( 22.47470568210500400, 52.94708855238056300, 24.68963286898553000 ) ) ;
#236 = DIRECTION ( 'NONE',  ( -2.535795797795273600E-017, 0.4226182617406940600, -0.9063077870366526000 ) ) ;
#237 = VECTOR ( 'NONE', #43, 999.9999999999998900 ) ;
#238 = CARTESIAN_POINT ( 'NONE',  ( -13.99999999999999800, 116.4117171066237800, -30.99999999999999300 ) ) ;
#239 = CARTESIAN_POINT ( 'NONE',  ( 1.346315620981919100, 58.28331755930286600, 32.47899771761152000 ) ) ;
#240 = AXIS2_PLACEMENT_3D ( 'NONE', #118, #26, #195 ) ;
#241 = EDGE_CURVE ( 'NONE', #279, #250, #228, .T. ) ;
#242 = CARTESIAN_POINT ( 'NONE',  ( 1.611679814241115500, 53.30560763508769600, 26.82837104042464200 ) ) ;
#243 = ORIENTED_EDGE ( 'NONE', *, *, #188, .F. ) ;
#244 = ADVANCED_FACE ( 'NONE', ( #76 ), #273, .F. ) ;
#245 = DIRECTION ( 'NONE',  ( -2.535795797795273600E-017, -0.4226182617406940600, 0.9063077870366526000 ) ) ;
#246 = MECHANICAL_DESIGN_GEOMETRIC_PRESENTATION_REPRESENTATION (  '', ( #9 ), #114 ) ;
#247 = EDGE_CURVE ( 'NONE', #173, #173, #186, .T. ) ;
#248 = FILL_AREA_STYLE_COLOUR ( '', #264 ) ;
#249 = SHAPE_DEFINITION_REPRESENTATION ( #103, #2 ) ;
#250 = VERTEX_POINT ( 'NONE', #189 ) ;
#251 = FILL_AREA_STYLE_COLOUR ( '', #154 ) ;
#252 = CARTESIAN_POINT ( 'NONE',  ( 13.99999999999999600, 46.10181517026092000, 31.00000000000000700 ) ) ;
#253 = CARTESIAN_POINT ( 'NONE',  ( -13.99999999999999800, 94.39818482973910800, -30.99999999999999300 ) ) ;
#254 = ORIENTED_EDGE ( 'NONE', *, *, #247, .T. ) ;
#255 = EDGE_LOOP ( 'NONE', ( #267 ) ) ;
#256 = CARTESIAN_POINT ( 'NONE',  ( 13.99999999999999800, 116.4117171066237800, -30.99999999999999300 ) ) ;
#257 = CARTESIAN_POINT ( 'NONE',  ( -1.346315620981919600, 53.30560763508769600, 29.52100228238848300 ) ) ;
#258 = CYLINDRICAL_SURFACE ( 'NONE', #120, 13.99999999999999800 ) ;
#259 = DIRECTION ( 'NONE',  ( 0.0000000000000000000, -1.000000000000000000, 0.0000000000000000000 ) ) ;
#260 = SURFACE_STYLE_FILL_AREA ( #13 ) ;
#261 = VECTOR ( 'NONE', #245, 999.9999999999998900 ) ;
#262 = CARTESIAN_POINT ( 'NONE',  ( -4.304311056204952900, 53.30560763508770300, 32.21363352435232500 ) ) ;
#263 = EDGE_CURVE ( 'NONE', #279, #122, #213, .T. ) ;
#264 = COLOUR_RGB ( '',0.7529411764705882200, 0.7529411764705882200, 0.7529411764705882200 ) ;
#265 = VECTOR ( 'NONE', #62, 1000.000000000000000 ) ;
#266 = CARTESIAN_POINT ( 'NONE',  ( 4.304311056204955600, 50.78331755930286600, 29.78636647564767900 ) ) ;
#267 = ORIENTED_EDGE ( 'NONE', *, *, #164, .T. ) ;
#268 =( NAMED_UNIT ( * ) PLANE_ANGLE_UNIT ( ) SI_UNIT ( $, .RADIAN. ) );
#269 = APPLICATION_PROTOCOL_DEFINITION ( 'draft international standard', 'automotive_design', 1998, #5 ) ;
#270 = ORIENTED_EDGE ( 'NONE', *, *, #45, .T. ) ;
#271 = CARTESIAN_POINT ( 'NONE',  ( 1.346315620981918300, 87.19439236491233200, -29.52100228238847600 ) ) ;
#272 = CARTESIAN_POINT ( 'NONE',  ( -13.99999999999999800, 116.4117171066237800, -30.99999999999999300 ) ) ;
#273 = PLANE ( 'NONE',  #85 ) ;
#274 = LINE ( 'NONE', #193, #137 ) ;
#275 = CARTESIAN_POINT ( 'NONE',  ( -13.99999999999999600, 116.4117171066237800, 31.00000000000000400 ) ) ;
#276 = SURFACE_STYLE_USAGE ( .BOTH. , #208 ) ;
#277 = DIRECTION ( 'NONE',  ( 1.000000000000000000, 0.0000000000000000000, 0.0000000000000000000 ) ) ;
#278 = PRESENTATION_LAYER_ASSIGNMENT (  '', '', ( #9 ) ) ;
#279 = VERTEX_POINT ( 'NONE', #183 ) ;
#280 = ORIENTED_EDGE ( 'NONE', *, *, #80, .F. ) ;
#281 = PRESENTATION_STYLE_ASSIGNMENT (( #282 ) ) ;
#282 = SURFACE_STYLE_USAGE ( .BOTH. , #20 ) ;
#283 = VECTOR ( 'NONE', #233, 1000.000000000000000 ) ;
#284 = CARTESIAN_POINT ( 'NONE',  ( -13.99999999999999600, 65.48711002412964900, 31.00000000000000400 ) ) ;
#285 = CARTESIAN_POINT ( 'NONE',  ( -1.611679814241111100, 87.19439236491233200, -26.82837104042464200 ) ) ;
#286 = EDGE_CURVE ( 'NONE', #38, #150, #204, .T. ) ;
ENDSEC;
END-ISO-10303-21;
