ISO-10303-21;
HEADER;
/* Generated by software containing ST-Developer
 * from STEP Tools, Inc. (www.steptools.com) 
 */

FILE_DESCRIPTION(
/* description */ (''),
/* implementation_level */ '2;1');

FILE_NAME(
/* name */ 'C:\\Users\\Marc\\Desktop\\splitbox 203 compliant.stp',
/* time_stamp */ '2018-04-06T14:47:26+02:00',
/* author */ ('Marc'),
/* organization */ (''),
/* preprocessor_version */ 'ST-DEVELOPER v17',
/* originating_system */ 'Autodesk Inventor 2018',
/* authorisation */ '');

FILE_SCHEMA (('CONFIG_CONTROL_DESIGN'));
ENDSEC;

DATA;
#10=MECHANICAL_DESIGN_GEOMETRIC_PRESENTATION_REPRESENTATION('',(#41,#42,
#43,#44,#45,#46,#47,#48,#49,#50,#51,#52,#53),#427);
#11=GEOMETRICALLY_BOUNDED_WIREFRAME_SHAPE_REPRESENTATION('',(#12,#13,#14,
#15),#426);
#12=GEOMETRIC_CURVE_SET('left sketch',(#37,#19,#20));
#13=GEOMETRIC_CURVE_SET('back sketch',(#21,#22,#23,#24,#25));
#14=GEOMETRIC_CURVE_SET('right sketch',(#26,#27,#28,#29,#30,#31,#32,#33,
#34));
#15=GEOMETRIC_CURVE_SET('front sketch',(#38,#35,#36));
#16=SHAPE_REPRESENTATION_RELATIONSHIP('SRR','None',#434,#18);
#17=SHAPE_REPRESENTATION_RELATIONSHIP('SRR','None',#434,#11);
#18=ADVANCED_BREP_SHAPE_REPRESENTATION('',(#241),#426);
#19=POLYLINE('',(#385,#386));
#20=POLYLINE('',(#387,#388));
#21=POLYLINE('',(#389,#390));
#22=POLYLINE('',(#391,#392));
#23=POLYLINE('',(#393,#394));
#24=POLYLINE('',(#395,#396));
#25=POLYLINE('',(#397,#398));
#26=POLYLINE('',(#399,#400));
#27=POLYLINE('',(#401,#402));
#28=POLYLINE('',(#403,#404));
#29=POLYLINE('',(#405,#406));
#30=POLYLINE('',(#407,#408));
#31=POLYLINE('',(#409,#410));
#32=POLYLINE('',(#411,#412));
#33=POLYLINE('',(#413,#414));
#34=POLYLINE('',(#415,#416));
#35=POLYLINE('',(#420,#421));
#36=POLYLINE('',(#422,#423));
#37=TRIMMED_CURVE('',#39,(#383,PARAMETER_VALUE(0.)),(#384,
PARAMETER_VALUE(3.14159265358979)),.T.,.PARAMETER.);
#38=TRIMMED_CURVE('',#40,(#418,PARAMETER_VALUE(3.14159265358979)),(#419,
PARAMETER_VALUE(6.28318530717959)),.T.,.PARAMETER.);
#39=CIRCLE('',#273,4.);
#40=CIRCLE('',#274,7.5);
#41=STYLED_ITEM('',(#443),#241);
#42=STYLED_ITEM('',(#444),#21);
#43=STYLED_ITEM('',(#444),#22);
#44=STYLED_ITEM('',(#444),#23);
#45=STYLED_ITEM('',(#444),#24);
#46=STYLED_ITEM('',(#444),#26);
#47=STYLED_ITEM('',(#444),#27);
#48=STYLED_ITEM('',(#444),#29);
#49=STYLED_ITEM('',(#444),#31);
#50=STYLED_ITEM('',(#444),#32);
#51=STYLED_ITEM('',(#444),#38);
#52=STYLED_ITEM('',(#444),#35);
#53=STYLED_ITEM('',(#444),#36);
#54=ORIENTED_CLOSED_SHELL('',*,#240,.F.);
#55=FACE_OUTER_BOUND('',#67,.T.);
#56=FACE_OUTER_BOUND('',#68,.T.);
#57=FACE_OUTER_BOUND('',#69,.T.);
#58=FACE_OUTER_BOUND('',#70,.T.);
#59=FACE_OUTER_BOUND('',#71,.T.);
#60=FACE_OUTER_BOUND('',#72,.T.);
#61=FACE_OUTER_BOUND('',#73,.T.);
#62=FACE_OUTER_BOUND('',#74,.T.);
#63=FACE_OUTER_BOUND('',#75,.T.);
#64=FACE_OUTER_BOUND('',#76,.T.);
#65=FACE_OUTER_BOUND('',#77,.T.);
#66=FACE_OUTER_BOUND('',#78,.T.);
#67=EDGE_LOOP('',(#167,#168,#169,#170));
#68=EDGE_LOOP('',(#171,#172,#173,#174));
#69=EDGE_LOOP('',(#175,#176,#177,#178));
#70=EDGE_LOOP('',(#179,#180,#181,#182));
#71=EDGE_LOOP('',(#183,#184,#185,#186));
#72=EDGE_LOOP('',(#187,#188,#189,#190));
#73=EDGE_LOOP('',(#191,#192,#193,#194));
#74=EDGE_LOOP('',(#195,#196,#197,#198));
#75=EDGE_LOOP('',(#199,#200,#201,#202));
#76=EDGE_LOOP('',(#203,#204,#205,#206));
#77=EDGE_LOOP('',(#207,#208,#209,#210));
#78=EDGE_LOOP('',(#211,#212,#213,#214));
#79=LINE('',#333,#103);
#80=LINE('',#335,#104);
#81=LINE('',#337,#105);
#82=LINE('',#338,#106);
#83=LINE('',#341,#107);
#84=LINE('',#343,#108);
#85=LINE('',#344,#109);
#86=LINE('',#347,#110);
#87=LINE('',#348,#111);
#88=LINE('',#351,#112);
#89=LINE('',#352,#113);
#90=LINE('',#354,#114);
#91=LINE('',#359,#115);
#92=LINE('',#361,#116);
#93=LINE('',#363,#117);
#94=LINE('',#364,#118);
#95=LINE('',#367,#119);
#96=LINE('',#369,#120);
#97=LINE('',#370,#121);
#98=LINE('',#373,#122);
#99=LINE('',#374,#123);
#100=LINE('',#377,#124);
#101=LINE('',#378,#125);
#102=LINE('',#380,#126);
#103=VECTOR('',#279,10.);
#104=VECTOR('',#280,10.);
#105=VECTOR('',#281,10.);
#106=VECTOR('',#282,10.);
#107=VECTOR('',#285,10.);
#108=VECTOR('',#286,10.);
#109=VECTOR('',#287,10.);
#110=VECTOR('',#290,10.);
#111=VECTOR('',#291,10.);
#112=VECTOR('',#294,10.);
#113=VECTOR('',#295,10.);
#114=VECTOR('',#298,10.);
#115=VECTOR('',#303,10.);
#116=VECTOR('',#304,10.);
#117=VECTOR('',#305,10.);
#118=VECTOR('',#306,10.);
#119=VECTOR('',#309,10.);
#120=VECTOR('',#310,10.);
#121=VECTOR('',#311,10.);
#122=VECTOR('',#314,10.);
#123=VECTOR('',#315,10.);
#124=VECTOR('',#318,10.);
#125=VECTOR('',#319,10.);
#126=VECTOR('',#322,10.);
#127=VERTEX_POINT('',#331);
#128=VERTEX_POINT('',#332);
#129=VERTEX_POINT('',#334);
#130=VERTEX_POINT('',#336);
#131=VERTEX_POINT('',#340);
#132=VERTEX_POINT('',#342);
#133=VERTEX_POINT('',#346);
#134=VERTEX_POINT('',#350);
#135=VERTEX_POINT('',#357);
#136=VERTEX_POINT('',#358);
#137=VERTEX_POINT('',#360);
#138=VERTEX_POINT('',#362);
#139=VERTEX_POINT('',#366);
#140=VERTEX_POINT('',#368);
#141=VERTEX_POINT('',#372);
#142=VERTEX_POINT('',#376);
#143=EDGE_CURVE('',#127,#128,#79,.T.);
#144=EDGE_CURVE('',#128,#129,#80,.T.);
#145=EDGE_CURVE('',#129,#130,#81,.T.);
#146=EDGE_CURVE('',#130,#127,#82,.T.);
#147=EDGE_CURVE('',#131,#128,#83,.T.);
#148=EDGE_CURVE('',#132,#131,#84,.T.);
#149=EDGE_CURVE('',#129,#132,#85,.T.);
#150=EDGE_CURVE('',#133,#132,#86,.T.);
#151=EDGE_CURVE('',#130,#133,#87,.T.);
#152=EDGE_CURVE('',#134,#133,#88,.T.);
#153=EDGE_CURVE('',#127,#134,#89,.T.);
#154=EDGE_CURVE('',#131,#134,#90,.T.);
#155=EDGE_CURVE('',#135,#136,#91,.T.);
#156=EDGE_CURVE('',#137,#135,#92,.T.);
#157=EDGE_CURVE('',#138,#137,#93,.T.);
#158=EDGE_CURVE('',#136,#138,#94,.T.);
#159=EDGE_CURVE('',#139,#136,#95,.F.);
#160=EDGE_CURVE('',#138,#140,#96,.F.);
#161=EDGE_CURVE('',#140,#139,#97,.F.);
#162=EDGE_CURVE('',#137,#141,#98,.F.);
#163=EDGE_CURVE('',#141,#140,#99,.F.);
#164=EDGE_CURVE('',#135,#142,#100,.F.);
#165=EDGE_CURVE('',#142,#141,#101,.F.);
#166=EDGE_CURVE('',#139,#142,#102,.F.);
#167=ORIENTED_EDGE('',*,*,#143,.T.);
#168=ORIENTED_EDGE('',*,*,#144,.T.);
#169=ORIENTED_EDGE('',*,*,#145,.T.);
#170=ORIENTED_EDGE('',*,*,#146,.T.);
#171=ORIENTED_EDGE('',*,*,#147,.F.);
#172=ORIENTED_EDGE('',*,*,#148,.F.);
#173=ORIENTED_EDGE('',*,*,#149,.F.);
#174=ORIENTED_EDGE('',*,*,#144,.F.);
#175=ORIENTED_EDGE('',*,*,#149,.T.);
#176=ORIENTED_EDGE('',*,*,#150,.F.);
#177=ORIENTED_EDGE('',*,*,#151,.F.);
#178=ORIENTED_EDGE('',*,*,#145,.F.);
#179=ORIENTED_EDGE('',*,*,#151,.T.);
#180=ORIENTED_EDGE('',*,*,#152,.F.);
#181=ORIENTED_EDGE('',*,*,#153,.F.);
#182=ORIENTED_EDGE('',*,*,#146,.F.);
#183=ORIENTED_EDGE('',*,*,#153,.T.);
#184=ORIENTED_EDGE('',*,*,#154,.F.);
#185=ORIENTED_EDGE('',*,*,#147,.T.);
#186=ORIENTED_EDGE('',*,*,#143,.F.);
#187=ORIENTED_EDGE('',*,*,#154,.T.);
#188=ORIENTED_EDGE('',*,*,#152,.T.);
#189=ORIENTED_EDGE('',*,*,#150,.T.);
#190=ORIENTED_EDGE('',*,*,#148,.T.);
#191=ORIENTED_EDGE('',*,*,#155,.F.);
#192=ORIENTED_EDGE('',*,*,#156,.F.);
#193=ORIENTED_EDGE('',*,*,#157,.F.);
#194=ORIENTED_EDGE('',*,*,#158,.F.);
#195=ORIENTED_EDGE('',*,*,#159,.T.);
#196=ORIENTED_EDGE('',*,*,#158,.T.);
#197=ORIENTED_EDGE('',*,*,#160,.T.);
#198=ORIENTED_EDGE('',*,*,#161,.T.);
#199=ORIENTED_EDGE('',*,*,#160,.F.);
#200=ORIENTED_EDGE('',*,*,#157,.T.);
#201=ORIENTED_EDGE('',*,*,#162,.T.);
#202=ORIENTED_EDGE('',*,*,#163,.T.);
#203=ORIENTED_EDGE('',*,*,#162,.F.);
#204=ORIENTED_EDGE('',*,*,#156,.T.);
#205=ORIENTED_EDGE('',*,*,#164,.T.);
#206=ORIENTED_EDGE('',*,*,#165,.T.);
#207=ORIENTED_EDGE('',*,*,#164,.F.);
#208=ORIENTED_EDGE('',*,*,#155,.T.);
#209=ORIENTED_EDGE('',*,*,#159,.F.);
#210=ORIENTED_EDGE('',*,*,#166,.T.);
#211=ORIENTED_EDGE('',*,*,#166,.F.);
#212=ORIENTED_EDGE('',*,*,#161,.F.);
#213=ORIENTED_EDGE('',*,*,#163,.F.);
#214=ORIENTED_EDGE('',*,*,#165,.F.);
#215=PLANE('',#261);
#216=PLANE('',#262);
#217=PLANE('',#263);
#218=PLANE('',#264);
#219=PLANE('',#265);
#220=PLANE('',#266);
#221=PLANE('',#267);
#222=PLANE('',#268);
#223=PLANE('',#269);
#224=PLANE('',#270);
#225=PLANE('',#271);
#226=PLANE('',#272);
#227=ADVANCED_FACE('',(#55),#215,.T.);
#228=ADVANCED_FACE('',(#56),#216,.T.);
#229=ADVANCED_FACE('',(#57),#217,.T.);
#230=ADVANCED_FACE('',(#58),#218,.T.);
#231=ADVANCED_FACE('',(#59),#219,.T.);
#232=ADVANCED_FACE('',(#60),#220,.T.);
#233=ADVANCED_FACE('',(#61),#221,.F.);
#234=ADVANCED_FACE('',(#62),#222,.F.);
#235=ADVANCED_FACE('',(#63),#223,.F.);
#236=ADVANCED_FACE('',(#64),#224,.F.);
#237=ADVANCED_FACE('',(#65),#225,.F.);
#238=ADVANCED_FACE('',(#66),#226,.F.);
#239=CLOSED_SHELL('',(#227,#228,#229,#230,#231,#232));
#240=CLOSED_SHELL('',(#233,#234,#235,#236,#237,#238));
#241=BREP_WITH_VOIDS('Solid1',#239,(#54));
#242=DERIVED_UNIT_ELEMENT(#244,1.);
#243=DERIVED_UNIT_ELEMENT(#429,3.);
#244=(
MASS_UNIT()
NAMED_UNIT(*)
SI_UNIT($,.GRAM.)
);
#245=DERIVED_UNIT((#242,#243));
#246=MEASURE_REPRESENTATION_ITEM('density measure',
POSITIVE_RATIO_MEASURE(1.),#245);
#247=PROPERTY_DEFINITION_REPRESENTATION(#252,#249);
#248=PROPERTY_DEFINITION_REPRESENTATION(#253,#250);
#249=REPRESENTATION('material name',(#251),#426);
#250=REPRESENTATION('density',(#246),#426);
#251=DESCRIPTIVE_REPRESENTATION_ITEM('Generic','Generic');
#252=PROPERTY_DEFINITION('material property','material name',#436);
#253=PROPERTY_DEFINITION('material property','density of part',#436);
#254=DATE_TIME_ROLE('creation_date');
#255=CC_DESIGN_DATE_AND_TIME_ASSIGNMENT(#256,#254,(#436));
#256=DATE_AND_TIME(#257,#258);
#257=CALENDAR_DATE(2018,5,4);
#258=LOCAL_TIME(14,46,42.,#259);
#259=COORDINATED_UNIVERSAL_TIME_OFFSET(0,0,.BEHIND.);
#260=AXIS2_PLACEMENT_3D('placement',#329,#275,#276);
#261=AXIS2_PLACEMENT_3D('',#330,#277,#278);
#262=AXIS2_PLACEMENT_3D('',#339,#283,#284);
#263=AXIS2_PLACEMENT_3D('',#345,#288,#289);
#264=AXIS2_PLACEMENT_3D('',#349,#292,#293);
#265=AXIS2_PLACEMENT_3D('',#353,#296,#297);
#266=AXIS2_PLACEMENT_3D('',#355,#299,#300);
#267=AXIS2_PLACEMENT_3D('',#356,#301,#302);
#268=AXIS2_PLACEMENT_3D('',#365,#307,#308);
#269=AXIS2_PLACEMENT_3D('',#371,#312,#313);
#270=AXIS2_PLACEMENT_3D('',#375,#316,#317);
#271=AXIS2_PLACEMENT_3D('',#379,#320,#321);
#272=AXIS2_PLACEMENT_3D('',#381,#323,#324);
#273=AXIS2_PLACEMENT_3D('',#382,#325,#326);
#274=AXIS2_PLACEMENT_3D('',#417,#327,#328);
#275=DIRECTION('axis',(0.,0.,1.));
#276=DIRECTION('refdir',(1.,0.,0.));
#277=DIRECTION('center_axis',(0.,-1.,0.));
#278=DIRECTION('ref_axis',(0.,0.,-1.));
#279=DIRECTION('',(-1.,0.,0.));
#280=DIRECTION('',(0.,0.,-1.));
#281=DIRECTION('',(1.,0.,0.));
#282=DIRECTION('',(0.,0.,1.));
#283=DIRECTION('center_axis',(-1.,0.,0.));
#284=DIRECTION('ref_axis',(0.,0.,1.));
#285=DIRECTION('',(0.,-1.,0.));
#286=DIRECTION('',(0.,0.,1.));
#287=DIRECTION('',(0.,1.,0.));
#288=DIRECTION('center_axis',(0.,0.,-1.));
#289=DIRECTION('ref_axis',(-1.,0.,0.));
#290=DIRECTION('',(-1.,0.,0.));
#291=DIRECTION('',(0.,1.,0.));
#292=DIRECTION('center_axis',(1.,0.,0.));
#293=DIRECTION('ref_axis',(0.,0.,-1.));
#294=DIRECTION('',(0.,0.,-1.));
#295=DIRECTION('',(0.,1.,0.));
#296=DIRECTION('center_axis',(0.,0.,1.));
#297=DIRECTION('ref_axis',(1.,0.,0.));
#298=DIRECTION('',(1.,0.,0.));
#299=DIRECTION('center_axis',(0.,1.,0.));
#300=DIRECTION('ref_axis',(0.,0.,1.));
#301=DIRECTION('center_axis',(0.,-1.,0.));
#302=DIRECTION('ref_axis',(0.,0.,-1.));
#303=DIRECTION('',(-1.,0.,0.));
#304=DIRECTION('',(0.,0.,1.));
#305=DIRECTION('',(1.,0.,0.));
#306=DIRECTION('',(0.,0.,-1.));
#307=DIRECTION('center_axis',(-1.,0.,0.));
#308=DIRECTION('ref_axis',(0.,0.,1.));
#309=DIRECTION('',(0.,1.,0.));
#310=DIRECTION('',(0.,-1.,0.));
#311=DIRECTION('',(0.,0.,-1.));
#312=DIRECTION('center_axis',(0.,0.,-1.));
#313=DIRECTION('ref_axis',(-1.,0.,0.));
#314=DIRECTION('',(0.,-1.,0.));
#315=DIRECTION('',(1.,0.,0.));
#316=DIRECTION('center_axis',(1.,0.,0.));
#317=DIRECTION('ref_axis',(0.,0.,-1.));
#318=DIRECTION('',(0.,-1.,0.));
#319=DIRECTION('',(0.,0.,1.));
#320=DIRECTION('center_axis',(0.,0.,1.));
#321=DIRECTION('ref_axis',(1.,0.,0.));
#322=DIRECTION('',(-1.,0.,0.));
#323=DIRECTION('center_axis',(0.,1.,0.));
#324=DIRECTION('ref_axis',(0.,0.,1.));
#325=DIRECTION('center_axis',(0.,0.,-1.));
#326=DIRECTION('ref_axis',(-1.,0.,0.));
#327=DIRECTION('center_axis',(-1.,0.,0.));
#328=DIRECTION('ref_axis',(0.,0.,1.));
#329=CARTESIAN_POINT('',(0.,0.,0.));
#330=CARTESIAN_POINT('Origin',(0.,-12.5,0.));
#331=CARTESIAN_POINT('',(50.,-12.5,25.));
#332=CARTESIAN_POINT('',(-50.,-12.5,25.));
#333=CARTESIAN_POINT('',(-50.,-12.5,25.));
#334=CARTESIAN_POINT('',(-50.,-12.5,-25.));
#335=CARTESIAN_POINT('',(-50.,-12.5,-25.));
#336=CARTESIAN_POINT('',(50.,-12.5,-25.));
#337=CARTESIAN_POINT('',(50.,-12.5,-25.));
#338=CARTESIAN_POINT('',(50.,-12.5,25.));
#339=CARTESIAN_POINT('Origin',(-50.,0.,-25.));
#340=CARTESIAN_POINT('',(-50.,12.5,25.));
#341=CARTESIAN_POINT('',(-50.,0.,25.));
#342=CARTESIAN_POINT('',(-50.,12.5,-25.));
#343=CARTESIAN_POINT('',(-50.,12.5,-25.));
#344=CARTESIAN_POINT('',(-50.,0.,-25.));
#345=CARTESIAN_POINT('Origin',(50.,0.,-25.));
#346=CARTESIAN_POINT('',(50.,12.5,-25.));
#347=CARTESIAN_POINT('',(50.,12.5,-25.));
#348=CARTESIAN_POINT('',(50.,0.,-25.));
#349=CARTESIAN_POINT('Origin',(50.,0.,25.));
#350=CARTESIAN_POINT('',(50.,12.5,25.));
#351=CARTESIAN_POINT('',(50.,12.5,25.));
#352=CARTESIAN_POINT('',(50.,0.,25.));
#353=CARTESIAN_POINT('Origin',(-50.,0.,25.));
#354=CARTESIAN_POINT('',(-50.,12.5,25.));
#355=CARTESIAN_POINT('Origin',(0.,12.5,0.));
#356=CARTESIAN_POINT('Origin',(0.,-11.5,0.));
#357=CARTESIAN_POINT('',(49.,-11.5,24.));
#358=CARTESIAN_POINT('',(-49.,-11.5,24.));
#359=CARTESIAN_POINT('',(-25.,-11.5,24.));
#360=CARTESIAN_POINT('',(49.,-11.5,-24.));
#361=CARTESIAN_POINT('',(49.,-11.5,12.5));
#362=CARTESIAN_POINT('',(-49.,-11.5,-24.));
#363=CARTESIAN_POINT('',(25.,-11.5,-24.));
#364=CARTESIAN_POINT('',(-49.,-11.5,-12.5));
#365=CARTESIAN_POINT('Origin',(-49.,0.,-25.));
#366=CARTESIAN_POINT('',(-49.,11.5,24.));
#367=CARTESIAN_POINT('',(-49.,0.,24.));
#368=CARTESIAN_POINT('',(-49.,11.5,-24.));
#369=CARTESIAN_POINT('',(-49.,0.,-24.));
#370=CARTESIAN_POINT('',(-49.,11.5,-12.5));
#371=CARTESIAN_POINT('Origin',(50.,0.,-24.));
#372=CARTESIAN_POINT('',(49.,11.5,-24.));
#373=CARTESIAN_POINT('',(49.,0.,-24.));
#374=CARTESIAN_POINT('',(25.,11.5,-24.));
#375=CARTESIAN_POINT('Origin',(49.,0.,25.));
#376=CARTESIAN_POINT('',(49.,11.5,24.));
#377=CARTESIAN_POINT('',(49.,0.,24.));
#378=CARTESIAN_POINT('',(49.,11.5,12.5));
#379=CARTESIAN_POINT('Origin',(-50.,0.,24.));
#380=CARTESIAN_POINT('',(-25.,11.5,24.));
#381=CARTESIAN_POINT('Origin',(0.,11.5,0.));
#382=CARTESIAN_POINT('Origin',(-15.621140179505,2.5,-25.));
#383=CARTESIAN_POINT('',(-19.621140179505,2.5,-25.));
#384=CARTESIAN_POINT('',(-11.621140179505,2.5,-25.));
#385=CARTESIAN_POINT('polyline point',(50.,2.5,-25.));
#386=CARTESIAN_POINT('polyline point',(-11.621140179505,2.5,-25.));
#387=CARTESIAN_POINT('polyline point',(-19.621140179505,2.5,-25.));
#388=CARTESIAN_POINT('polyline point',(-50.,2.5,-25.));
#389=CARTESIAN_POINT('polyline point',(50.,2.49999999999999,9.));
#390=CARTESIAN_POINT('polyline point',(50.,-2.22044604925031E-15,9.));
#391=CARTESIAN_POINT('polyline point',(50.,-2.22044604925031E-15,9.));
#392=CARTESIAN_POINT('polyline point',(50.,-2.22044604925031E-15,19.));
#393=CARTESIAN_POINT('polyline point',(50.,-2.22044604925031E-15,19.));
#394=CARTESIAN_POINT('polyline point',(50.,2.5,19.));
#395=CARTESIAN_POINT('polyline point',(50.,2.5,-25.));
#396=CARTESIAN_POINT('polyline point',(50.,2.49999999999999,9.));
#397=CARTESIAN_POINT('polyline point',(50.,2.5,19.));
#398=CARTESIAN_POINT('polyline point',(50.,2.5,25.));
#399=CARTESIAN_POINT('polyline point',(30.,-6.04683483585239,25.));
#400=CARTESIAN_POINT('polyline point',(30.,2.49999999999999,25.));
#401=CARTESIAN_POINT('polyline point',(25.,2.95316516414761,25.));
#402=CARTESIAN_POINT('polyline point',(25.,-6.04683483585239,25.));
#403=CARTESIAN_POINT('polyline point',(25.,-6.04683483585239,25.));
#404=CARTESIAN_POINT('polyline point',(30.,-6.04683483585239,25.));
#405=CARTESIAN_POINT('polyline point',(10.,2.50000000000001,25.));
#406=CARTESIAN_POINT('polyline point',(10.,-3.04683483585239,25.));
#407=CARTESIAN_POINT('polyline point',(10.,-3.04683483585239,25.));
#408=CARTESIAN_POINT('polyline point',(15.,-3.04683483585239,25.));
#409=CARTESIAN_POINT('polyline point',(15.,-3.04683483585239,25.));
#410=CARTESIAN_POINT('polyline point',(15.,2.95316516414761,25.));
#411=CARTESIAN_POINT('polyline point',(50.,2.5,25.));
#412=CARTESIAN_POINT('polyline point',(30.,2.49999999999999,25.));
#413=CARTESIAN_POINT('polyline point',(25.,2.95316516414761,25.));
#414=CARTESIAN_POINT('polyline point',(15.,2.95316516414761,25.));
#415=CARTESIAN_POINT('polyline point',(10.,2.50000000000001,25.));
#416=CARTESIAN_POINT('polyline point',(-50.,2.5,25.));
#417=CARTESIAN_POINT('Origin',(-50.,2.5,0.));
#418=CARTESIAN_POINT('',(-50.,2.5,-7.5));
#419=CARTESIAN_POINT('',(-50.,2.5,7.5));
#420=CARTESIAN_POINT('polyline point',(-50.,2.5,-25.));
#421=CARTESIAN_POINT('polyline point',(-50.,2.5,-7.5));
#422=CARTESIAN_POINT('polyline point',(-50.,2.5,7.5));
#423=CARTESIAN_POINT('polyline point',(-50.,2.5,25.));
#424=UNCERTAINTY_MEASURE_WITH_UNIT(LENGTH_MEASURE(0.01),#428,
'DISTANCE_ACCURACY_VALUE',
'Maximum model space distance between geometric entities at asserted c
onnectivities');
#425=UNCERTAINTY_MEASURE_WITH_UNIT(LENGTH_MEASURE(0.01),#428,
'DISTANCE_ACCURACY_VALUE',
'Maximum model space distance between geometric entities at asserted c
onnectivities');
#426=(
GEOMETRIC_REPRESENTATION_CONTEXT(3)
GLOBAL_UNCERTAINTY_ASSIGNED_CONTEXT((#424))
GLOBAL_UNIT_ASSIGNED_CONTEXT((#428,#431,#430))
REPRESENTATION_CONTEXT('','3D')
);
#427=(
GEOMETRIC_REPRESENTATION_CONTEXT(3)
GLOBAL_UNCERTAINTY_ASSIGNED_CONTEXT((#425))
GLOBAL_UNIT_ASSIGNED_CONTEXT((#428,#431,#430))
REPRESENTATION_CONTEXT('','3D')
);
#428=(
LENGTH_UNIT()
NAMED_UNIT(*)
SI_UNIT(.MILLI.,.METRE.)
);
#429=(
LENGTH_UNIT()
NAMED_UNIT(*)
SI_UNIT(.CENTI.,.METRE.)
);
#430=(
NAMED_UNIT(*)
SI_UNIT($,.STERADIAN.)
SOLID_ANGLE_UNIT()
);
#431=(
NAMED_UNIT(*)
PLANE_ANGLE_UNIT()
SI_UNIT($,.RADIAN.)
);
#432=SHAPE_DEFINITION_REPRESENTATION(#433,#434);
#433=PRODUCT_DEFINITION_SHAPE('',$,#436);
#434=SHAPE_REPRESENTATION('',(#260),#426);
#435=DESIGN_CONTEXT('part definition',#440,'design');
#436=PRODUCT_DEFINITION('essai','splitbox',#437,#435);
#437=PRODUCT_DEFINITION_FORMATION('',$,#442);
#438=PRODUCT_RELATED_PRODUCT_CATEGORY('splitbox','splitbox',(#442));
#439=APPLICATION_PROTOCOL_DEFINITION('international standard',
'ap203_configuration_controlled_3d_design_of_mechanical_parts_and_asse
mblies_mim_lf',2004,#440);
#440=APPLICATION_CONTEXT(
'Configuration Controlled 3D Design of Mechanical Parts and Assemblies');
#441=MECHANICAL_CONTEXT('part definition',#440,'mechanical');
#442=PRODUCT('essai','splitbox',$,(#441));
#443=PRESENTATION_STYLE_ASSIGNMENT((#445));
#444=PRESENTATION_STYLE_ASSIGNMENT((#446));
#445=SURFACE_STYLE_USAGE(.BOTH.,#447);
#446=SURFACE_STYLE_USAGE(.BOTH.,#448);
#447=SURFACE_SIDE_STYLE('',(#449));
#448=SURFACE_SIDE_STYLE('',(#450));
#449=SURFACE_STYLE_FILL_AREA(#451);
#450=SURFACE_STYLE_FILL_AREA(#452);
#451=FILL_AREA_STYLE('',(#453));
#452=FILL_AREA_STYLE('',(#454));
#453=FILL_AREA_STYLE_COLOUR('',#455);
#454=FILL_AREA_STYLE_COLOUR('',#456);
#455=COLOUR_RGB('',0.749019607843137,0.749019607843137,0.749019607843137);
#456=COLOUR_RGB('',0.2,0.,0.498039215686275);
ENDSEC;
END-ISO-10303-21;
