999
dxflib 2.2.0.0
  0
SECTION
  2
HEADER
  9
$ACADVER
  1
AC1015
  9
$HANDSEED
  5
FFFF
  9
$INSUNITS
 70
4
  9
$DIMEXE
 40
1.25
  9
$TEXTSTYLE
  7
Standard
  9
$LIMMIN
 10
0.0
 20
0.0
  0
ENDSEC
  0
SECTION
  2
TABLES
  0
TABLE
  2
VPORT
  5
8
100
AcDbSymbolTable
 70
1
  0
VPORT
  5
30
100
AcDbSymbolTableRecord
100
AcDbViewportTableRecord
  2
*Active
 70
0
 10
0.0
 20
0.0
 11
1.0
 21
1.0
 12
286.30555555555549
 22
148.5
 13
0.0
 23
0.0
 14
10.0
 24
10.0
 15
10.0
 25
10.0
 16
0.0
 26
0.0
 36
1.0
 17
0.0
 27
0.0
 37
0.0
 40
297.0
 41
1.92798353909465
 42
50.0
 43
0.0
 44
0.0
 50
0.0
 51
0.0
 71
0
 72
100
 73
1
 74
3
 75
1
 76
1
 77
0
 78
0
281
0
 65
1
110
0.0
120
0.0
130
0.0
111
1.0
121
0.0
131
0.0
112
0.0
122
1.0
132
0.0
 79
0
146
0.0
  0
ENDTAB
  0
TABLE
  2
LTYPE
  5
5
100
AcDbSymbolTable
 70
25
  0
LTYPE
  5
14
100
AcDbSymbolTableRecord
100
AcDbLinetypeTableRecord
  2
BYBLOCK
 70
0
  3

 72
65
 73
0
 40
0.0
  0
LTYPE
  5
15
100
AcDbSymbolTableRecord
100
AcDbLinetypeTableRecord
  2
BYLAYER
 70
0
  3

 72
65
 73
0
 40
0.0
  0
LTYPE
  5
16
100
AcDbSymbolTableRecord
100
AcDbLinetypeTableRecord
  2
CONTINUOUS
 70
0
  3
Solid line
 72
65
 73
0
 40
0.0
  0
LTYPE
  5
31
100
AcDbSymbolTableRecord
100
AcDbLinetypeTableRecord
  2
ACAD_ISO02W100
 70
0
  3
ISO Dashed __ __ __ __ __ __ __ __ __ __ _
 72
65
 73
2
 40
15.0
 49
12.0
 74
0
 49
-3.0
 74
0
  0
LTYPE
  5
32
100
AcDbSymbolTableRecord
100
AcDbLinetypeTableRecord
  2
ACAD_ISO03W100
 70
0
  3
ISO Dashed with Distance __    __    __    _
 72
65
 73
2
 40
30.0
 49
12.0
 74
0
 49
-18.0
 74
0
  0
LTYPE
  5
33
100
AcDbSymbolTableRecord
100
AcDbLinetypeTableRecord
  2
ACAD_ISO04W100
 70
0
  3
ISO Long Dashed Dotted ____ . ____ . __
 72
65
 73
4
 40
30.0
 49
24.0
 74
0
 49
-3.0
 74
0
 49
0.0
 74
0
 49
-3.0
 74
0
  0
LTYPE
  5
34
100
AcDbSymbolTableRecord
100
AcDbLinetypeTableRecord
  2
ACAD_ISO05W100
 70
0
  3
ISO Long Dashed Double Dotted ____ .. __
 72
65
 73
6
 40
33.0
 49
24.0
 74
0
 49
-3.0
 74
0
 49
0.0
 74
0
 49
-3.0
 74
0
 49
0.0
 74
0
 49
-3.0
 74
0
  0
LTYPE
  5
35
100
AcDbSymbolTableRecord
100
AcDbLinetypeTableRecord
  2
BORDER
 70
0
  3
Border __ __ . __ __ . __ __ . __ __ . __ __ .
 72
65
 73
6
 40
44.450000000000003
 49
12.699999999999999
 74
0
 49
-6.3499999999999996
 74
0
 49
12.699999999999999
 74
0
 49
-6.3499999999999996
 74
0
 49
0.0
 74
0
 49
-6.3499999999999996
 74
0
  0
LTYPE
  5
36
100
AcDbSymbolTableRecord
100
AcDbLinetypeTableRecord
  2
BORDER2
 70
0
  3
Border (.5x) __.__.__.__.__.__.__.__.__.__.__.
 72
65
 73
6
 40
22.225000000000001
 49
6.3499999999999996
 74
0
 49
-3.1749999999999998
 74
0
 49
6.3499999999999996
 74
0
 49
-3.1749999999999998
 74
0
 49
0.0
 74
0
 49
-3.1749999999999998
 74
0
  0
LTYPE
  5
37
100
AcDbSymbolTableRecord
100
AcDbLinetypeTableRecord
  2
BORDERX2
 70
0
  3
Border (2x) ____  ____  .  ____  ____  .  ___
 72
65
 73
6
 40
88.900000000000006
 49
25.399999999999999
 74
0
 49
-12.699999999999999
 74
0
 49
25.399999999999999
 74
0
 49
-12.699999999999999
 74
0
 49
0.0
 74
0
 49
-12.699999999999999
 74
0
  0
LTYPE
  5
38
100
AcDbSymbolTableRecord
100
AcDbLinetypeTableRecord
  2
CENTER
 70
0
  3
Center ____ _ ____ _ ____ _ ____ _ ____ _ ____
 72
65
 73
4
 40
50.799999999999997
 49
31.75
 74
0
 49
-6.3499999999999996
 74
0
 49
6.3499999999999996
 74
0
 49
-6.3499999999999996
 74
0
  0
LTYPE
  5
39
100
AcDbSymbolTableRecord
100
AcDbLinetypeTableRecord
  2
CENTER2
 70
0
  3
Center (.5x) ___ _ ___ _ ___ _ ___ _ ___ _ ___
 72
65
 73
4
 40
28.574999999999999
 49
19.050000000000001
 74
0
 49
-3.1749999999999998
 74
0
 49
3.1749999999999998
 74
0
 49
-3.1749999999999998
 74
0
  0
LTYPE
  5
3A
100
AcDbSymbolTableRecord
100
AcDbLinetypeTableRecord
  2
CENTERX2
 70
0
  3
Center (2x) ________  __  ________  __  _____
 72
65
 73
4
 40
101.59999999999999
 49
63.5
 74
0
 49
-12.699999999999999
 74
0
 49
12.699999999999999
 74
0
 49
-12.699999999999999
 74
0
  0
LTYPE
  5
3B
100
AcDbSymbolTableRecord
100
AcDbLinetypeTableRecord
  2
DASHDOT
 70
0
  3
Dash dot __ . __ . __ . __ . __ . __ . __ . __
 72
65
 73
4
 40
25.399999999999999
 49
12.699999999999999
 74
0
 49
-6.3499999999999996
 74
0
 49
0.0
 74
0
 49
-6.3499999999999996
 74
0
  0
LTYPE
  5
3C
100
AcDbSymbolTableRecord
100
AcDbLinetypeTableRecord
  2
DASHDOT2
 70
0
  3
Dash dot (.5x) _._._._._._._._._._._._._._._.
 72
65
 73
4
 40
12.699999999999999
 49
6.3499999999999996
 74
0
 49
-3.1749999999999998
 74
0
 49
0.0
 74
0
 49
-3.1749999999999998
 74
0
  0
LTYPE
  5
3D
100
AcDbSymbolTableRecord
100
AcDbLinetypeTableRecord
  2
DASHDOTX2
 70
0
  3
Dash dot (2x) ____  .  ____  .  ____  .  ___
 72
65
 73
4
 40
50.799999999999997
 49
25.399999999999999
 74
0
 49
-12.699999999999999
 74
0
 49
0.0
 74
0
 49
-12.699999999999999
 74
0
  0
LTYPE
  5
3E
100
AcDbSymbolTableRecord
100
AcDbLinetypeTableRecord
  2
DASHED
 70
0
  3
Dashed __ __ __ __ __ __ __ __ __ __ __ __ __ _
 72
65
 73
2
 40
19.050000000000001
 49
12.699999999999999
 74
0
 49
-6.3499999999999996
 74
0
  0
LTYPE
  5
3F
100
AcDbSymbolTableRecord
100
AcDbLinetypeTableRecord
  2
DASHED2
 70
0
  3
Dashed (.5x) _ _ _ _ _ _ _ _ _ _ _ _ _ _ _ _ _
 72
65
 73
2
 40
9.5250000000000004
 49
6.3499999999999996
 74
0
 49
-3.1749999999999998
 74
0
  0
LTYPE
  5
40
100
AcDbSymbolTableRecord
100
AcDbLinetypeTableRecord
  2
DASHEDX2
 70
0
  3
Dashed (2x) ____  ____  ____  ____  ____  ___
 72
65
 73
2
 40
38.100000000000001
 49
25.399999999999999
 74
0
 49
-12.699999999999999
 74
0
  0
LTYPE
  5
41
100
AcDbSymbolTableRecord
100
AcDbLinetypeTableRecord
  2
DIVIDE
 70
0
  3
Divide ____ . . ____ . . ____ . . ____ . . ____
 72
65
 73
6
 40
31.75
 49
12.699999999999999
 74
0
 49
-6.3499999999999996
 74
0
 49
0.0
 74
0
 49
-6.3499999999999996
 74
0
 49
0.0
 74
0
 49
-6.3499999999999996
 74
0
  0
LTYPE
  5
42
100
AcDbSymbolTableRecord
100
AcDbLinetypeTableRecord
  2
DIVIDE2
 70
0
  3
Divide (.5x) __..__..__..__..__..__..__..__.._
 72
65
 73
6
 40
15.875
 49
6.3499999999999996
 74
0
 49
-3.1749999999999998
 74
0
 49
0.0
 74
0
 49
-3.1749999999999998
 74
0
 49
0.0
 74
0
 49
-3.1749999999999998
 74
0
  0
LTYPE
  5
43
100
AcDbSymbolTableRecord
100
AcDbLinetypeTableRecord
  2
DIVIDEX2
 70
0
  3
Divide (2x) ________  .  .  ________  .  .  _
 72
65
 73
6
 40
63.5
 49
25.399999999999999
 74
0
 49
-12.699999999999999
 74
0
 49
0.0
 74
0
 49
-12.699999999999999
 74
0
 49
0.0
 74
0
 49
-12.699999999999999
 74
0
  0
LTYPE
  5
44
100
AcDbSymbolTableRecord
100
AcDbLinetypeTableRecord
  2
DOT
 70
0
  3
Dot . . . . . . . . . . . . . . . . . . . . . .
 72
65
 73
2
 40
6.3499999999999996
 49
0.0
 74
0
 49
-6.3499999999999996
 74
0
  0
LTYPE
  5
45
100
AcDbSymbolTableRecord
100
AcDbLinetypeTableRecord
  2
DOT2
 70
0
  3
Dot (.5x) .....................................
 72
65
 73
2
 40
3.1749999999999998
 49
0.0
 74
0
 49
-3.1749999999999998
 74
0
  0
LTYPE
  5
46
100
AcDbSymbolTableRecord
100
AcDbLinetypeTableRecord
  2
DOTX2
 70
0
  3
Dot (2x) .  .  .  .  .  .  .  .  .  .  .  .  .
 72
65
 73
2
 40
12.699999999999999
 49
0.0
 74
0
 49
-12.699999999999999
 74
0
  0
ENDTAB
  0
TABLE
  2
LAYER
  5
2
100
AcDbSymbolTable
 70
3
  0
LAYER
  5
10
100
AcDbSymbolTableRecord
100
AcDbLayerTableRecord
  2
0
 70
0
 62
250
  6
CONTINUOUS
370
100
390
F
  0
LAYER
  5
47
100
AcDbSymbolTableRecord
100
AcDbLayerTableRecord
  2
color#000000ff
 70
0
 62
7
  6
CONTINUOUS
370
100
390
F
  0
LAYER
  5
48
100
AcDbSymbolTableRecord
100
AcDbLayerTableRecord
  2
color#ff0000ff
 70
0
 62
7
  6
CONTINUOUS
370
100
390
F
  0
ENDTAB
  0
TABLE
  2
STYLE
  5
3
100
AcDbSymbolTable
 70
1
  0
STYLE
  5
11
100
AcDbSymbolTableRecord
100
AcDbTextStyleTableRecord
  2
Standard
 70
0
 40
0.0
 41
0.75
 50
0.0
 71
0
 42
2.5
  3
txt
  4

  0
ENDTAB
  0
TABLE
  2
VIEW
  5
6
100
AcDbSymbolTable
 70
0
  0
ENDTAB
  0
TABLE
  2
UCS
  5
7
100
AcDbSymbolTable
 70
0
  0
ENDTAB
  0
TABLE
  2
APPID
  5
9
100
AcDbSymbolTable
 70
1
  0
APPID
  5
12
100
AcDbSymbolTableRecord
100
AcDbRegAppTableRecord
  2
ACAD
 70
0
  0
ENDTAB
  0
TABLE
  2
DIMSTYLE
  5
A
100
AcDbSymbolTable
 70
1
100
AcDbDimStyleTable
 71
0
  0
DIMSTYLE
105
27
100
AcDbSymbolTableRecord
100
AcDbDimStyleTableRecord
  2
Standard
 41
1.0
 42
1.0
 43
3.75
 44
1.0
 70
0
 73
0
 74
0
 77
1
 78
8
140
1.0
141
2.5
143
0.03937007874016
147
1.0
171
3
172
1
271
2
272
2
274
3
278
44
283
0
284
8
340
11
  0
ENDTAB
  0
TABLE
  2
BLOCK_RECORD
  5
1
100
AcDbSymbolTable
 70
1
  0
BLOCK_RECORD
  5
1F
100
AcDbSymbolTableRecord
100
AcDbBlockTableRecord
  2
*Model_Space
340
22
  0
BLOCK_RECORD
  5
1B
100
AcDbSymbolTableRecord
100
AcDbBlockTableRecord
  2
*Paper_Space
340
1E
  0
BLOCK_RECORD
  5
23
100
AcDbSymbolTableRecord
100
AcDbBlockTableRecord
  2
*Paper_Space0
340
26
  0
ENDTAB
  0
ENDSEC
  0
SECTION
  2
BLOCKS
  0
BLOCK
  5
20
100
AcDbEntity
  8
0
100
AcDbBlockBegin
  2
*Model_Space
 70
0
 10
0.0
 20
0.0
 30
0.0
  3
*Model_Space
  1

  0
ENDBLK
  5
21
100
AcDbEntity
  8
0
100
AcDbBlockEnd
  0
BLOCK
  5
1C
100
AcDbEntity
 67
1
  8
0
100
AcDbBlockBegin
  2
*Paper_Space
 70
0
 10
0.0
 20
0.0
 30
0.0
  3
*Paper_Space
  1

  0
ENDBLK
  5
1D
100
AcDbEntity
 67
1
  8
0
100
AcDbBlockEnd
  0
BLOCK
  5
24
100
AcDbEntity
  8
0
100
AcDbBlockBegin
  2
*Paper_Space0
 70
0
 10
0.0
 20
0.0
 30
0.0
  3
*Paper_Space0
  1

  0
ENDBLK
  5
25
100
AcDbEntity
  8
0
100
AcDbBlockEnd
  0
ENDSEC
  0
SECTION
  2
ENTITIES
  0
LINE
  5
49
100
AcDbEntity
100
AcDbLine
  8
color#000000ff
 62
256
370
-1
  6
BYLAYER
 10
0.0
 20
1.8055555555555556
 30
0.0
 11
4.1944444444444446
 21
1.8055555555555556
 31
0.0
  0
LINE
  5
4A
100
AcDbEntity
100
AcDbLine
  8
color#000000ff
 62
256
370
-1
  6
BYLAYER
 10
4.1944444444444446
 20
1.8055555555555556
 30
0.0
 11
4.1944444444444446
 21
0.0
 31
0.0
  0
LINE
  5
4B
100
AcDbEntity
100
AcDbLine
  8
color#000000ff
 62
256
370
-1
  6
BYLAYER
 10
4.1944444444444446
 20
0.0
 30
0.0
 11
0.0
 21
0.0
 31
0.0
  0
LINE
  5
4C
100
AcDbEntity
100
AcDbLine
  8
color#000000ff
 62
256
370
-1
  6
BYLAYER
 10
0.0
 20
0.0
 30
0.0
 11
0.0
 21
1.8055555555555556
 31
0.0
  0
SPLINE
  5
4D
  8
color#000000ff
 62
256
370
-1
  6
BYLAYER
100
AcDbEntity
100
AcDbSpline
 70
8
 71
3
 72
8
 73
4
 74
0
 40
0.0
 40
0.0
 40
0.0
 40
0.0
 40
1.0
 40
1.0
 40
1.0
 40
1.0
 10
0.2392743110614967
 20
1.4707772038840625
 30
0.0
 10
0.2288191526036425
 20
1.2539124278087344
 30
0.0
 10
0.2375570937016987
 20
1.0363852741927224
 30
0.0
 10
0.2352112490010467
 20
0.819259362956699
 30
0.0
  0
SPLINE
  5
4E
  8
color#000000ff
 62
256
370
-1
  6
BYLAYER
100
AcDbEntity
100
AcDbSpline
 70
8
 71
3
 72
8
 73
4
 74
0
 40
0.0
 40
0.0
 40
0.0
 40
0.0
 40
1.0
 40
1.0
 40
1.0
 40
1.0
 10
0.2352112490010467
 20
0.819259362956699
 30
0.0
 10
0.2390519406185667
 20
0.6845234058557049
 30
0.0
 10
0.2305272933070028
 20
0.5369447822674771
 30
0.0
 10
0.3074363506818678
 20
0.4186155623299147
 30
0.0
  0
SPLINE
  5
4F
  8
color#000000ff
 62
256
370
-1
  6
BYLAYER
100
AcDbEntity
100
AcDbSpline
 70
8
 71
3
 72
8
 73
4
 74
0
 40
0.0
 40
0.0
 40
0.0
 40
0.0
 40
1.0
 40
1.0
 40
1.0
 40
1.0
 10
0.3074363506818678
 20
0.4186155623299147
 30
0.0
 10
0.4391286137700676
 20
0.2422237572237646
 30
0.0
 10
0.6994344140108315
 20
0.1965080438146442
 30
0.0
 10
0.8891485210138859
 20
0.3049125776328743
 30
0.0
  0
SPLINE
  5
50
  8
color#000000ff
 62
256
370
-1
  6
BYLAYER
100
AcDbEntity
100
AcDbSpline
 70
8
 71
3
 72
8
 73
4
 74
0
 40
0.0
 40
0.0
 40
0.0
 40
0.0
 40
1.0
 40
1.0
 40
1.0
 40
1.0
 10
0.8891485210138859
 20
0.3049125776328743
 30
0.0
 10
1.156542070638479
 20
0.4513438518231063
 30
0.0
 10
1.4166670027068242
 20
0.6108992232239233
 30
0.0
 10
1.6811266316218736
 20
0.7625649142505279
 30
0.0
  0
SPLINE
  5
51
  8
color#000000ff
 62
256
370
-1
  6
BYLAYER
100
AcDbEntity
100
AcDbSpline
 70
8
 71
3
 72
8
 73
4
 74
0
 40
0.0
 40
0.0
 40
0.0
 40
0.0
 40
1.0
 40
1.0
 40
1.0
 40
1.0
 10
1.6811266316218736
 20
0.7625649142505279
 30
0.0
 10
1.9859839268307016
 20
0.9132385879906305
 30
0.0
 10
2.3725178648804208
 20
0.8884802091895985
 30
0.0
 10
2.6539199955340713
 20
0.6967150719211397
 30
0.0
  0
SPLINE
  5
52
  8
color#000000ff
 62
256
370
-1
  6
BYLAYER
100
AcDbEntity
100
AcDbSpline
 70
8
 71
3
 72
8
 73
4
 74
0
 40
0.0
 40
0.0
 40
0.0
 40
0.0
 40
1.0
 40
1.0
 40
1.0
 40
1.0
 10
2.6539199955340713
 20
0.6967150719211397
 30
0.0
 10
2.880220447551229
 20
0.5660289757376652
 30
0.0
 10
3.1026085520910605
 20
0.4282572856264798
 30
0.0
 10
3.3332002617895888
 20
0.3051791775070149
 30
0.0
  0
SPLINE
  5
53
  8
color#000000ff
 62
256
370
-1
  6
BYLAYER
100
AcDbEntity
100
AcDbSpline
 70
8
 71
3
 72
8
 73
4
 74
0
 40
0.0
 40
0.0
 40
0.0
 40
0.0
 40
1.0
 40
1.0
 40
1.0
 40
1.0
 10
3.3332002617895888
 20
0.3051791775070149
 30
0.0
 10
3.5184497036490781
 20
0.1989999211112728
 30
0.0
 10
3.7754691357513672
 20
0.2413406310007227
 30
0.0
 10
3.9093832410791012
 20
0.4103225911991767
 30
0.0
  0
SPLINE
  5
54
  8
color#000000ff
 62
256
370
-1
  6
BYLAYER
100
AcDbEntity
100
AcDbSpline
 70
8
 71
3
 72
8
 73
4
 74
0
 40
0.0
 40
0.0
 40
0.0
 40
0.0
 40
1.0
 40
1.0
 40
1.0
 40
1.0
 10
3.9093832410791012
 20
0.4103225911991767
 30
0.0
 10
3.9858052856366273
 20
0.5263954108150765
 30
0.0
 10
3.9918536116600789
 20
0.671201278989441
 30
0.0
 10
3.9874176222827313
 20
0.8054996125579287
 30
0.0
  0
SPLINE
  5
55
  8
color#000000ff
 62
256
370
-1
  6
BYLAYER
100
AcDbEntity
100
AcDbSpline
 70
8
 71
3
 72
8
 73
4
 74
0
 40
0.0
 40
0.0
 40
0.0
 40
0.0
 40
1.0
 40
1.0
 40
1.0
 40
1.0
 10
3.9874176222827313
 20
0.8054996125579287
 30
0.0
 10
3.9829652738896542
 20
1.035081788068559
 30
0.0
 10
3.99622870350708
 20
1.2652365163910941
 30
0.0
 10
3.9789533545420417
 20
1.4943870925054836
 30
0.0
  0
SPLINE
  5
56
  8
color#000000ff
 62
256
370
-1
  6
BYLAYER
100
AcDbEntity
100
AcDbSpline
 70
8
 71
3
 72
8
 73
4
 74
0
 40
0.0
 40
0.0
 40
0.0
 40
0.0
 40
1.0
 40
1.0
 40
1.0
 40
1.0
 10
3.9789533545420417
 20
1.4943870925054836
 30
0.0
 10
3.9624396745239068
 20
1.5686135389265159
 30
0.0
 10
3.8735492174968584
 20
1.596562921947887
 30
0.0
 10
3.8061132006485838
 20
1.5841401252646676
 30
0.0
  0
SPLINE
  5
57
  8
color#000000ff
 62
256
370
-1
  6
BYLAYER
100
AcDbEntity
100
AcDbSpline
 70
8
 71
3
 72
8
 73
4
 74
0
 40
0.0
 40
0.0
 40
0.0
 40
0.0
 40
1.0
 40
1.0
 40
1.0
 40
1.0
 10
3.8061132006485838
 20
1.5841401252646676
 30
0.0
 10
3.366983613513896
 20
1.57948178805974
 30
0.0
 10
2.9274253988782406
 20
1.5915359491906416
 30
0.0
 10
2.4885841477401169
 20
1.5782910674596837
 30
0.0
  0
SPLINE
  5
58
  8
color#000000ff
 62
256
370
-1
  6
BYLAYER
100
AcDbEntity
100
AcDbSpline
 70
8
 71
3
 72
8
 73
4
 74
0
 40
0.0
 40
0.0
 40
0.0
 40
0.0
 40
1.0
 40
1.0
 40
1.0
 40
1.0
 10
2.4885841477401169
 20
1.5782910674596837
 30
0.0
 10
2.4059957854499259
 20
1.5669091684144596
 30
0.0
 10
2.3794832860910784
 20
1.4792930040331349
 30
0.0
 10
2.3401478058673315
 20
1.418619788879897
 30
0.0
  0
SPLINE
  5
59
  8
color#000000ff
 62
256
370
-1
  6
BYLAYER
100
AcDbEntity
100
AcDbSpline
 70
8
 71
3
 72
8
 73
4
 74
0
 40
0.0
 40
0.0
 40
0.0
 40
0.0
 40
1.0
 40
1.0
 40
1.0
 40
1.0
 10
2.3401478058673315
 20
1.418619788879897
 30
0.0
 10
2.1877404751587299
 20
1.415120133081609
 30
0.0
 10
2.0353003490227546
 20
1.4158749828361381
 30
0.0
 10
1.8829497141324467
 20
1.4198078743357563
 30
0.0
  0
SPLINE
  5
5A
  8
color#000000ff
 62
256
370
-1
  6
BYLAYER
100
AcDbEntity
100
AcDbSpline
 70
8
 71
3
 72
8
 73
4
 74
0
 40
0.0
 40
0.0
 40
0.0
 40
0.0
 40
1.0
 40
1.0
 40
1.0
 40
1.0
 10
1.8829497141324467
 20
1.4198078743357563
 30
0.0
 10
1.8538294937596302
 20
1.4658788677781447
 30
0.0
 10
1.830720385496702
 20
1.5173441126896299
 30
0.0
 10
1.7902912785731173
 20
1.5548823444631217
 30
0.0
  0
SPLINE
  5
5B
  8
color#000000ff
 62
256
370
-1
  6
BYLAYER
100
AcDbEntity
100
AcDbSpline
 70
8
 71
3
 72
8
 73
4
 74
0
 40
0.0
 40
0.0
 40
0.0
 40
0.0
 40
1.0
 40
1.0
 40
1.0
 40
1.0
 10
1.7902912785731173
 20
1.5548823444631217
 30
0.0
 10
1.7255640347891714
 20
1.6000566401246614
 30
0.0
 10
1.6426645698654994
 20
1.5792898628251408
 30
0.0
 10
1.5695950242757282
 20
1.5852988618469659
 30
0.0
  0
SPLINE
  5
5C
  8
color#000000ff
 62
256
370
-1
  6
BYLAYER
100
AcDbEntity
100
AcDbSpline
 70
8
 71
3
 72
8
 73
4
 74
0
 40
0.0
 40
0.0
 40
0.0
 40
0.0
 40
1.0
 40
1.0
 40
1.0
 40
1.0
 10
1.5695950242757282
 20
1.5852988618469659
 30
0.0
 10
1.1760318548630018
 20
1.5792775757600561
 30
0.0
 10
0.782356184278149
 20
1.5886498095962196
 30
0.0
 10
0.3888763745247154
 20
1.5814668525936824
 30
0.0
  0
SPLINE
  5
5D
  8
color#000000ff
 62
256
370
-1
  6
BYLAYER
100
AcDbEntity
100
AcDbSpline
 70
8
 71
3
 72
8
 73
4
 74
0
 40
0.0
 40
0.0
 40
0.0
 40
0.0
 40
1.0
 40
1.0
 40
1.0
 40
1.0
 10
0.3888763745247154
 20
1.5814668525936824
 30
0.0
 10
0.3158821539690689
 20
1.5975923107901497
 30
0.0
 10
0.2449272841618944
 20
1.5428136892845721
 30
0.0
 10
0.2392743110614967
 20
1.4707772038840625
 30
0.0
  0
SPLINE
  5
5E
  8
color#000000ff
 62
256
370
-1
  6
BYLAYER
100
AcDbEntity
100
AcDbSpline
 70
8
 71
3
 72
8
 73
4
 74
0
 40
0.0
 40
0.0
 40
0.0
 40
0.0
 40
1.0
 40
1.0
 40
1.0
 40
1.0
 10
0.255806073272585
 20
1.4679568888491019
 30
0.0
 10
0.2637673362324747
 20
1.5363271809720029
 30
0.0
 10
0.335811150415005
 20
1.5814286083191298
 30
0.0
 10
0.4027653589127475
 20
1.5675743157836994
 30
0.0
  0
SPLINE
  5
5F
  8
color#000000ff
 62
256
370
-1
  6
BYLAYER
100
AcDbEntity
100
AcDbSpline
 70
8
 71
3
 72
8
 73
4
 74
0
 40
0.0
 40
0.0
 40
0.0
 40
0.0
 40
1.0
 40
1.0
 40
1.0
 40
1.0
 10
0.4027653589127475
 20
1.5675743157836994
 30
0.0
 10
0.8195524717448807
 20
1.5722766846525797
 30
0.0
 10
1.2365967161810805
 20
1.5699841838517443
 30
0.0
 10
1.6534280425979351
 20
1.5687538117214272
 30
0.0
  0
SPLINE
  5
60
  8
color#000000ff
 62
256
370
-1
  6
BYLAYER
100
AcDbEntity
100
AcDbSpline
 70
8
 71
3
 72
8
 73
4
 74
0
 40
0.0
 40
0.0
 40
0.0
 40
0.0
 40
1.0
 40
1.0
 40
1.0
 40
1.0
 10
1.6534280425979351
 20
1.5687538117214272
 30
0.0
 10
1.7678387367779191
 20
1.5927612087629042
 30
0.0
 10
1.8245005265341094
 20
1.4885677725884061
 30
0.0
 10
1.8690194443739714
 20
1.4059573037190669
 30
0.0
  0
SPLINE
  5
61
  8
color#000000ff
 62
256
370
-1
  6
BYLAYER
100
AcDbEntity
100
AcDbSpline
 70
8
 71
3
 72
8
 73
4
 74
0
 40
0.0
 40
0.0
 40
0.0
 40
0.0
 40
1.0
 40
1.0
 40
1.0
 40
1.0
 10
1.8690194443739714
 20
1.4059573037190669
 30
0.0
 10
2.030723333551721
 20
1.4015815047467439
 30
0.0
 10
2.1925281169890387
 20
1.4014910683104396
 30
0.0
 10
2.3542783749253609
 20
1.4056229834886389
 30
0.0
  0
SPLINE
  5
62
  8
color#000000ff
 62
256
370
-1
  6
BYLAYER
100
AcDbEntity
100
AcDbSpline
 70
8
 71
3
 72
8
 73
4
 74
0
 40
0.0
 40
0.0
 40
0.0
 40
0.0
 40
1.0
 40
1.0
 40
1.0
 40
1.0
 10
2.3542783749253609
 20
1.4056229834886389
 30
0.0
 10
2.3938403248526017
 20
1.4658229627904926
 30
0.0
 10
2.4201270337678098
 20
1.5532608989398509
 30
0.0
 10
2.5024763125727598
 20
1.5644005388632825
 30
0.0
  0
SPLINE
  5
63
  8
color#000000ff
 62
256
370
-1
  6
BYLAYER
100
AcDbEntity
100
AcDbSpline
 70
8
 71
3
 72
8
 73
4
 74
0
 40
0.0
 40
0.0
 40
0.0
 40
0.0
 40
1.0
 40
1.0
 40
1.0
 40
1.0
 10
2.5024763125727598
 20
1.5644005388632825
 30
0.0
 10
2.9181396099799271
 20
1.5777165944958287
 30
0.0
 10
3.3345157032355295
 20
1.5657627542850698
 30
0.0
 10
3.7504708616235645
 20
1.5700156421515075
 30
0.0
  0
SPLINE
  5
64
  8
color#000000ff
 62
256
370
-1
  6
BYLAYER
100
AcDbEntity
100
AcDbSpline
 70
8
 71
3
 72
8
 73
4
 74
0
 40
0.0
 40
0.0
 40
0.0
 40
0.0
 40
1.0
 40
1.0
 40
1.0
 40
1.0
 10
3.7504708616235645
 20
1.5700156421515075
 30
0.0
 10
3.8104211308915121
 20
1.5612755781556906
 30
0.0
 10
3.8887369479202296
 20
1.5833441074988357
 30
0.0
 10
3.9354424495492637
 20
1.5326657606834455
 30
0.0
  0
SPLINE
  5
65
  8
color#000000ff
 62
256
370
-1
  6
BYLAYER
100
AcDbEntity
100
AcDbSpline
 70
8
 71
3
 72
8
 73
4
 74
0
 40
0.0
 40
0.0
 40
0.0
 40
0.0
 40
1.0
 40
1.0
 40
1.0
 40
1.0
 10
3.9354424495492637
 20
1.5326657606834455
 30
0.0
 10
3.9861738064459331
 20
1.4859487128876925
 30
0.0
 10
3.9637475390639172
 20
1.4078092436088634
 30
0.0
 10
3.972684411394579
 20
1.3476924092259759
 30
0.0
  0
SPLINE
  5
66
  8
color#000000ff
 62
256
370
-1
  6
BYLAYER
100
AcDbEntity
100
AcDbSpline
 70
8
 71
3
 72
8
 73
4
 74
0
 40
0.0
 40
0.0
 40
0.0
 40
0.0
 40
1.0
 40
1.0
 40
1.0
 40
1.0
 10
3.972684411394579
 20
1.3476924092259759
 30
0.0
 10
3.9741338397741419
 20
1.1390931027555271
 30
0.0
 10
3.9743859176209435
 20
0.930454403933159
 30
0.0
 10
3.9719920514399627
 20
0.7218507570690831
 30
0.0
  0
SPLINE
  5
67
  8
color#000000ff
 62
256
370
-1
  6
BYLAYER
100
AcDbEntity
100
AcDbSpline
 70
8
 71
3
 72
8
 73
4
 74
0
 40
0.0
 40
0.0
 40
0.0
 40
0.0
 40
1.0
 40
1.0
 40
1.0
 40
1.0
 10
3.9719920514399627
 20
0.7218507570690831
 30
0.0
 10
3.9729635301630246
 20
0.6153719316632578
 30
0.0
 10
3.9518015289711923
 20
0.5044683272155413
 30
0.0
 10
3.8894754272830574
 20
0.416091693877432
 30
0.0
  0
SPLINE
  5
68
  8
color#000000ff
 62
256
370
-1
  6
BYLAYER
100
AcDbEntity
100
AcDbSpline
 70
8
 71
3
 72
8
 73
4
 74
0
 40
0.0
 40
0.0
 40
0.0
 40
0.0
 40
1.0
 40
1.0
 40
1.0
 40
1.0
 10
3.8894754272830574
 20
0.416091693877432
 30
0.0
 10
3.8104139388745928
 20
0.3322159836839627
 30
0.0
 10
3.7014671739675333
 20
0.2647646298275271
 30
0.0
 10
3.5827355835224881
 20
0.2650044671753681
 30
0.0
  0
SPLINE
  5
69
  8
color#000000ff
 62
256
370
-1
  6
BYLAYER
100
AcDbEntity
100
AcDbSpline
 70
8
 71
3
 72
8
 73
4
 74
0
 40
0.0
 40
0.0
 40
0.0
 40
0.0
 40
1.0
 40
1.0
 40
1.0
 40
1.0
 10
3.5827355835224881
 20
0.2650044671753681
 30
0.0
 10
3.4673824143637417
 20
0.2498703545718733
 30
0.0
 10
3.3617685653318872
 20
0.3087396050866887
 30
0.0
 10
3.2650577590829797
 20
0.3626837939348319
 30
0.0
  0
SPLINE
  5
6A
  8
color#000000ff
 62
256
370
-1
  6
BYLAYER
100
AcDbEntity
100
AcDbSpline
 70
8
 71
3
 72
8
 73
4
 74
0
 40
0.0
 40
0.0
 40
0.0
 40
0.0
 40
1.0
 40
1.0
 40
1.0
 40
1.0
 10
3.2650577590829797
 20
0.3626837939348319
 30
0.0
 10
3.0646808645943211
 20
0.4764426625772698
 30
0.0
 10
2.8667438801219518
 20
0.5943871740437816
 30
0.0
 10
2.6678083366387919
 20
0.7106030836428651
 30
0.0
  0
SPLINE
  5
6B
  8
color#000000ff
 62
256
370
-1
  6
BYLAYER
100
AcDbEntity
100
AcDbSpline
 70
8
 71
3
 72
8
 73
4
 74
0
 40
0.0
 40
0.0
 40
0.0
 40
0.0
 40
1.0
 40
1.0
 40
1.0
 40
1.0
 10
2.6678083366387919
 20
0.7106030836428651
 30
0.0
 10
2.3863460499432492
 20
0.9006392762273479
 30
0.0
 10
2.0044269355581146
 20
0.9267351320304821
 30
0.0
 10
1.6950701109836239
 20
0.790124589162802
 30
0.0
  0
SPLINE
  5
6C
  8
color#000000ff
 62
256
370
-1
  6
BYLAYER
100
AcDbEntity
100
AcDbSpline
 70
8
 71
3
 72
8
 73
4
 74
0
 40
0.0
 40
0.0
 40
0.0
 40
0.0
 40
1.0
 40
1.0
 40
1.0
 40
1.0
 10
1.6950701109836239
 20
0.790124589162802
 30
0.0
 10
1.4097387068211082
 20
0.6336062126282634
 30
0.0
 10
1.1356296147771252
 20
0.4563214409995268
 30
0.0
 10
0.8472561011261671
 20
0.3052719190833371
 30
0.0
  0
SPLINE
  5
6D
  8
color#000000ff
 62
256
370
-1
  6
BYLAYER
100
AcDbEntity
100
AcDbSpline
 70
8
 71
3
 72
8
 73
4
 74
0
 40
0.0
 40
0.0
 40
0.0
 40
0.0
 40
1.0
 40
1.0
 40
1.0
 40
1.0
 10
0.8472561011261671
 20
0.3052719190833371
 30
0.0
 10
0.6686114353175926
 20
0.2121866907873924
 30
0.0
 10
0.4401733771499729
 20
0.2752894181694799
 30
0.0
 10
0.321329522175124
 20
0.4325061646337828
 30
0.0
  0
SPLINE
  5
6E
  8
color#000000ff
 62
256
370
-1
  6
BYLAYER
100
AcDbEntity
100
AcDbSpline
 70
8
 71
3
 72
8
 73
4
 74
0
 40
0.0
 40
0.0
 40
0.0
 40
0.0
 40
1.0
 40
1.0
 40
1.0
 40
1.0
 10
0.321329522175124
 20
0.4325061646337828
 30
0.0
 10
0.2443727022492239
 20
0.5508243537139901
 30
0.0
 10
0.2530546735671192
 20
0.6984226547552849
 30
0.0
 10
0.2490510999327951
 20
0.8331483680556475
 30
0.0
  0
SPLINE
  5
6F
  8
color#000000ff
 62
256
370
-1
  6
BYLAYER
100
AcDbEntity
100
AcDbSpline
 70
8
 71
3
 72
8
 73
4
 74
0
 40
0.0
 40
0.0
 40
0.0
 40
0.0
 40
1.0
 40
1.0
 40
1.0
 40
1.0
 10
0.2490510999327951
 20
0.8331483680556475
 30
0.0
 10
0.2509774077572228
 20
1.0447088078700522
 30
0.0
 10
0.2417641290018912
 20
1.2567601059528877
 30
0.0
 10
0.255806073272585
 20
1.4679568888491019
 30
0.0
  0
SPLINE
  5
70
  8
color#ff0000ff
 62
256
370
-1
  6
BYLAYER
100
AcDbEntity
100
AcDbSpline
 70
8
 71
3
 72
8
 73
4
 74
0
 40
0.0
 40
0.0
 40
0.0
 40
0.0
 40
1.0
 40
1.0
 40
1.0
 40
1.0
 10
0.2392743110614967
 20
1.4707772038840625
 30
0.0
 10
0.2449272841618944
 20
1.5428136892845721
 30
0.0
 10
0.3158821539690689
 20
1.5975923107901497
 30
0.0
 10
0.3888763745247154
 20
1.5814668525936824
 30
0.0
  0
SPLINE
  5
71
  8
color#ff0000ff
 62
256
370
-1
  6
BYLAYER
100
AcDbEntity
100
AcDbSpline
 70
8
 71
3
 72
8
 73
4
 74
0
 40
0.0
 40
0.0
 40
0.0
 40
0.0
 40
1.0
 40
1.0
 40
1.0
 40
1.0
 10
0.3888763745247154
 20
1.5814668525936824
 30
0.0
 10
0.782356184278149
 20
1.5886498095962196
 30
0.0
 10
1.1760318548630018
 20
1.5792775757600561
 30
0.0
 10
1.5695950242757282
 20
1.5852988618469659
 30
0.0
  0
SPLINE
  5
72
  8
color#ff0000ff
 62
256
370
-1
  6
BYLAYER
100
AcDbEntity
100
AcDbSpline
 70
8
 71
3
 72
8
 73
4
 74
0
 40
0.0
 40
0.0
 40
0.0
 40
0.0
 40
1.0
 40
1.0
 40
1.0
 40
1.0
 10
1.5695950242757282
 20
1.5852988618469659
 30
0.0
 10
1.6426645698654994
 20
1.5792898628251408
 30
0.0
 10
1.7255640347891714
 20
1.6000566401246614
 30
0.0
 10
1.7902912785731173
 20
1.5548823444631217
 30
0.0
  0
SPLINE
  5
73
  8
color#ff0000ff
 62
256
370
-1
  6
BYLAYER
100
AcDbEntity
100
AcDbSpline
 70
8
 71
3
 72
8
 73
4
 74
0
 40
0.0
 40
0.0
 40
0.0
 40
0.0
 40
1.0
 40
1.0
 40
1.0
 40
1.0
 10
1.7902912785731173
 20
1.5548823444631217
 30
0.0
 10
1.830720385496702
 20
1.5173441126896299
 30
0.0
 10
1.8538294937596302
 20
1.4658788677781447
 30
0.0
 10
1.8829497141324467
 20
1.4198078743357563
 30
0.0
  0
SPLINE
  5
74
  8
color#ff0000ff
 62
256
370
-1
  6
BYLAYER
100
AcDbEntity
100
AcDbSpline
 70
8
 71
3
 72
8
 73
4
 74
0
 40
0.0
 40
0.0
 40
0.0
 40
0.0
 40
1.0
 40
1.0
 40
1.0
 40
1.0
 10
1.8829497141324467
 20
1.4198078743357563
 30
0.0
 10
2.0353003490227546
 20
1.4158749828361381
 30
0.0
 10
2.1877404751587299
 20
1.415120133081609
 30
0.0
 10
2.3401478058673315
 20
1.418619788879897
 30
0.0
  0
SPLINE
  5
75
  8
color#ff0000ff
 62
256
370
-1
  6
BYLAYER
100
AcDbEntity
100
AcDbSpline
 70
8
 71
3
 72
8
 73
4
 74
0
 40
0.0
 40
0.0
 40
0.0
 40
0.0
 40
1.0
 40
1.0
 40
1.0
 40
1.0
 10
2.3401478058673315
 20
1.418619788879897
 30
0.0
 10
2.3794832860910784
 20
1.4792930040331349
 30
0.0
 10
2.4059957854499259
 20
1.5669091684144596
 30
0.0
 10
2.4885841477401169
 20
1.5782910674596837
 30
0.0
  0
SPLINE
  5
76
  8
color#ff0000ff
 62
256
370
-1
  6
BYLAYER
100
AcDbEntity
100
AcDbSpline
 70
8
 71
3
 72
8
 73
4
 74
0
 40
0.0
 40
0.0
 40
0.0
 40
0.0
 40
1.0
 40
1.0
 40
1.0
 40
1.0
 10
2.4885841477401169
 20
1.5782910674596837
 30
0.0
 10
2.9274253988782406
 20
1.5915359491906416
 30
0.0
 10
3.366983613513896
 20
1.57948178805974
 30
0.0
 10
3.8061132006485838
 20
1.5841401252646676
 30
0.0
  0
SPLINE
  5
77
  8
color#ff0000ff
 62
256
370
-1
  6
BYLAYER
100
AcDbEntity
100
AcDbSpline
 70
8
 71
3
 72
8
 73
4
 74
0
 40
0.0
 40
0.0
 40
0.0
 40
0.0
 40
1.0
 40
1.0
 40
1.0
 40
1.0
 10
3.8061132006485838
 20
1.5841401252646676
 30
0.0
 10
3.8735492174968584
 20
1.596562921947887
 30
0.0
 10
3.9624396745239068
 20
1.5686135389265159
 30
0.0
 10
3.9789533545420417
 20
1.4943870925054836
 30
0.0
  0
SPLINE
  5
78
  8
color#ff0000ff
 62
256
370
-1
  6
BYLAYER
100
AcDbEntity
100
AcDbSpline
 70
8
 71
3
 72
8
 73
4
 74
0
 40
0.0
 40
0.0
 40
0.0
 40
0.0
 40
1.0
 40
1.0
 40
1.0
 40
1.0
 10
3.9789533545420417
 20
1.4943870925054836
 30
0.0
 10
3.99622870350708
 20
1.2652365163910941
 30
0.0
 10
3.9829652738896542
 20
1.035081788068559
 30
0.0
 10
3.9874176222827313
 20
0.8054996125579287
 30
0.0
  0
SPLINE
  5
79
  8
color#ff0000ff
 62
256
370
-1
  6
BYLAYER
100
AcDbEntity
100
AcDbSpline
 70
8
 71
3
 72
8
 73
4
 74
0
 40
0.0
 40
0.0
 40
0.0
 40
0.0
 40
1.0
 40
1.0
 40
1.0
 40
1.0
 10
3.9874176222827313
 20
0.8054996125579287
 30
0.0
 10
3.9918536116600789
 20
0.671201278989441
 30
0.0
 10
3.9858052856366273
 20
0.5263954108150765
 30
0.0
 10
3.9093832410791012
 20
0.4103225911991767
 30
0.0
  0
SPLINE
  5
7A
  8
color#ff0000ff
 62
256
370
-1
  6
BYLAYER
100
AcDbEntity
100
AcDbSpline
 70
8
 71
3
 72
8
 73
4
 74
0
 40
0.0
 40
0.0
 40
0.0
 40
0.0
 40
1.0
 40
1.0
 40
1.0
 40
1.0
 10
3.9093832410791012
 20
0.4103225911991767
 30
0.0
 10
3.7754691357513672
 20
0.2413406310007227
 30
0.0
 10
3.5184497036490781
 20
0.1989999211112728
 30
0.0
 10
3.3332002617895888
 20
0.3051791775070149
 30
0.0
  0
SPLINE
  5
7B
  8
color#ff0000ff
 62
256
370
-1
  6
BYLAYER
100
AcDbEntity
100
AcDbSpline
 70
8
 71
3
 72
8
 73
4
 74
0
 40
0.0
 40
0.0
 40
0.0
 40
0.0
 40
1.0
 40
1.0
 40
1.0
 40
1.0
 10
3.3332002617895888
 20
0.3051791775070149
 30
0.0
 10
3.1026085520910605
 20
0.4282572856264798
 30
0.0
 10
2.880220447551229
 20
0.5660289757376652
 30
0.0
 10
2.6539199955340713
 20
0.6967150719211397
 30
0.0
  0
SPLINE
  5
7C
  8
color#ff0000ff
 62
256
370
-1
  6
BYLAYER
100
AcDbEntity
100
AcDbSpline
 70
8
 71
3
 72
8
 73
4
 74
0
 40
0.0
 40
0.0
 40
0.0
 40
0.0
 40
1.0
 40
1.0
 40
1.0
 40
1.0
 10
2.6539199955340713
 20
0.6967150719211397
 30
0.0
 10
2.3725178648804208
 20
0.8884802091895985
 30
0.0
 10
1.9859839268307016
 20
0.9132385879906305
 30
0.0
 10
1.6811266316218736
 20
0.7625649142505279
 30
0.0
  0
SPLINE
  5
7D
  8
color#ff0000ff
 62
256
370
-1
  6
BYLAYER
100
AcDbEntity
100
AcDbSpline
 70
8
 71
3
 72
8
 73
4
 74
0
 40
0.0
 40
0.0
 40
0.0
 40
0.0
 40
1.0
 40
1.0
 40
1.0
 40
1.0
 10
1.6811266316218736
 20
0.7625649142505279
 30
0.0
 10
1.4166670027068242
 20
0.6108992232239233
 30
0.0
 10
1.156542070638479
 20
0.4513438518231063
 30
0.0
 10
0.8891485210138859
 20
0.3049125776328743
 30
0.0
  0
SPLINE
  5
7E
  8
color#ff0000ff
 62
256
370
-1
  6
BYLAYER
100
AcDbEntity
100
AcDbSpline
 70
8
 71
3
 72
8
 73
4
 74
0
 40
0.0
 40
0.0
 40
0.0
 40
0.0
 40
1.0
 40
1.0
 40
1.0
 40
1.0
 10
0.8891485210138859
 20
0.3049125776328743
 30
0.0
 10
0.6994344140108315
 20
0.1965080438146442
 30
0.0
 10
0.4391286137700676
 20
0.2422237572237646
 30
0.0
 10
0.3074363506818678
 20
0.4186155623299147
 30
0.0
  0
SPLINE
  5
7F
  8
color#ff0000ff
 62
256
370
-1
  6
BYLAYER
100
AcDbEntity
100
AcDbSpline
 70
8
 71
3
 72
8
 73
4
 74
0
 40
0.0
 40
0.0
 40
0.0
 40
0.0
 40
1.0
 40
1.0
 40
1.0
 40
1.0
 10
0.3074363506818678
 20
0.4186155623299147
 30
0.0
 10
0.2305272933070028
 20
0.5369447822674771
 30
0.0
 10
0.2390519406185667
 20
0.6845234058557049
 30
0.0
 10
0.2352112490010467
 20
0.819259362956699
 30
0.0
  0
SPLINE
  5
80
  8
color#ff0000ff
 62
256
370
-1
  6
BYLAYER
100
AcDbEntity
100
AcDbSpline
 70
8
 71
3
 72
8
 73
4
 74
0
 40
0.0
 40
0.0
 40
0.0
 40
0.0
 40
1.0
 40
1.0
 40
1.0
 40
1.0
 10
0.2352112490010467
 20
0.819259362956699
 30
0.0
 10
0.2375570937016987
 20
1.0363852741927224
 30
0.0
 10
0.2288191526036425
 20
1.2539124278087344
 30
0.0
 10
0.2392743110614967
 20
1.4707772038840625
 30
0.0
  0
SPLINE
  5
81
  8
color#ff0000ff
 62
256
370
-1
  6
BYLAYER
100
AcDbEntity
100
AcDbSpline
 70
8
 71
3
 72
8
 73
4
 74
0
 40
0.0
 40
0.0
 40
0.0
 40
0.0
 40
1.0
 40
1.0
 40
1.0
 40
1.0
 10
0.255806073272585
 20
1.4679568888491019
 30
0.0
 10
0.2417641290018912
 20
1.2567601059528877
 30
0.0
 10
0.2509774077572228
 20
1.0447088078700522
 30
0.0
 10
0.2490510999327951
 20
0.8331483680556475
 30
0.0
  0
SPLINE
  5
82
  8
color#ff0000ff
 62
256
370
-1
  6
BYLAYER
100
AcDbEntity
100
AcDbSpline
 70
8
 71
3
 72
8
 73
4
 74
0
 40
0.0
 40
0.0
 40
0.0
 40
0.0
 40
1.0
 40
1.0
 40
1.0
 40
1.0
 10
0.2490510999327951
 20
0.8331483680556475
 30
0.0
 10
0.2530546735671192
 20
0.6984226547552849
 30
0.0
 10
0.2443727022492239
 20
0.5508243537139901
 30
0.0
 10
0.321329522175124
 20
0.4325061646337828
 30
0.0
  0
SPLINE
  5
83
  8
color#ff0000ff
 62
256
370
-1
  6
BYLAYER
100
AcDbEntity
100
AcDbSpline
 70
8
 71
3
 72
8
 73
4
 74
0
 40
0.0
 40
0.0
 40
0.0
 40
0.0
 40
1.0
 40
1.0
 40
1.0
 40
1.0
 10
0.321329522175124
 20
0.4325061646337828
 30
0.0
 10
0.4401733771499729
 20
0.2752894181694799
 30
0.0
 10
0.6686114353175926
 20
0.2121866907873924
 30
0.0
 10
0.8472561011261671
 20
0.3052719190833371
 30
0.0
  0
SPLINE
  5
84
  8
color#ff0000ff
 62
256
370
-1
  6
BYLAYER
100
AcDbEntity
100
AcDbSpline
 70
8
 71
3
 72
8
 73
4
 74
0
 40
0.0
 40
0.0
 40
0.0
 40
0.0
 40
1.0
 40
1.0
 40
1.0
 40
1.0
 10
0.8472561011261671
 20
0.3052719190833371
 30
0.0
 10
1.1356296147771252
 20
0.4563214409995268
 30
0.0
 10
1.4097387068211082
 20
0.6336062126282634
 30
0.0
 10
1.6950701109836239
 20
0.790124589162802
 30
0.0
  0
SPLINE
  5
85
  8
color#ff0000ff
 62
256
370
-1
  6
BYLAYER
100
AcDbEntity
100
AcDbSpline
 70
8
 71
3
 72
8
 73
4
 74
0
 40
0.0
 40
0.0
 40
0.0
 40
0.0
 40
1.0
 40
1.0
 40
1.0
 40
1.0
 10
1.6950701109836239
 20
0.790124589162802
 30
0.0
 10
2.0044269355581146
 20
0.9267351320304821
 30
0.0
 10
2.3863460499432492
 20
0.9006392762273479
 30
0.0
 10
2.6678083366387919
 20
0.7106030836428651
 30
0.0
  0
SPLINE
  5
86
  8
color#ff0000ff
 62
256
370
-1
  6
BYLAYER
100
AcDbEntity
100
AcDbSpline
 70
8
 71
3
 72
8
 73
4
 74
0
 40
0.0
 40
0.0
 40
0.0
 40
0.0
 40
1.0
 40
1.0
 40
1.0
 40
1.0
 10
2.6678083366387919
 20
0.7106030836428651
 30
0.0
 10
2.8667438801219518
 20
0.5943871740437816
 30
0.0
 10
3.0646808645943211
 20
0.4764426625772698
 30
0.0
 10
3.2650577590829797
 20
0.3626837939348319
 30
0.0
  0
SPLINE
  5
87
  8
color#ff0000ff
 62
256
370
-1
  6
BYLAYER
100
AcDbEntity
100
AcDbSpline
 70
8
 71
3
 72
8
 73
4
 74
0
 40
0.0
 40
0.0
 40
0.0
 40
0.0
 40
1.0
 40
1.0
 40
1.0
 40
1.0
 10
3.2650577590829797
 20
0.3626837939348319
 30
0.0
 10
3.3617685653318872
 20
0.3087396050866887
 30
0.0
 10
3.4673824143637417
 20
0.2498703545718733
 30
0.0
 10
3.5827355835224881
 20
0.2650044671753681
 30
0.0
  0
SPLINE
  5
88
  8
color#ff0000ff
 62
256
370
-1
  6
BYLAYER
100
AcDbEntity
100
AcDbSpline
 70
8
 71
3
 72
8
 73
4
 74
0
 40
0.0
 40
0.0
 40
0.0
 40
0.0
 40
1.0
 40
1.0
 40
1.0
 40
1.0
 10
3.5827355835224881
 20
0.2650044671753681
 30
0.0
 10
3.7014671739675333
 20
0.2647646298275271
 30
0.0
 10
3.8104139388745928
 20
0.3322159836839627
 30
0.0
 10
3.8894754272830574
 20
0.416091693877432
 30
0.0
  0
SPLINE
  5
89
  8
color#ff0000ff
 62
256
370
-1
  6
BYLAYER
100
AcDbEntity
100
AcDbSpline
 70
8
 71
3
 72
8
 73
4
 74
0
 40
0.0
 40
0.0
 40
0.0
 40
0.0
 40
1.0
 40
1.0
 40
1.0
 40
1.0
 10
3.8894754272830574
 20
0.416091693877432
 30
0.0
 10
3.9518015289711923
 20
0.5044683272155413
 30
0.0
 10
3.9729635301630246
 20
0.6153719316632578
 30
0.0
 10
3.9719920514399627
 20
0.7218507570690831
 30
0.0
  0
SPLINE
  5
8A
  8
color#ff0000ff
 62
256
370
-1
  6
BYLAYER
100
AcDbEntity
100
AcDbSpline
 70
8
 71
3
 72
8
 73
4
 74
0
 40
0.0
 40
0.0
 40
0.0
 40
0.0
 40
1.0
 40
1.0
 40
1.0
 40
1.0
 10
3.9719920514399627
 20
0.7218507570690831
 30
0.0
 10
3.9743859176209435
 20
0.930454403933159
 30
0.0
 10
3.9741338397741419
 20
1.1390931027555271
 30
0.0
 10
3.972684411394579
 20
1.3476924092259759
 30
0.0
  0
SPLINE
  5
8B
  8
color#ff0000ff
 62
256
370
-1
  6
BYLAYER
100
AcDbEntity
100
AcDbSpline
 70
8
 71
3
 72
8
 73
4
 74
0
 40
0.0
 40
0.0
 40
0.0
 40
0.0
 40
1.0
 40
1.0
 40
1.0
 40
1.0
 10
3.972684411394579
 20
1.3476924092259759
 30
0.0
 10
3.9637475390639172
 20
1.4078092436088634
 30
0.0
 10
3.9861738064459331
 20
1.4859487128876925
 30
0.0
 10
3.9354424495492637
 20
1.5326657606834455
 30
0.0
  0
SPLINE
  5
8C
  8
color#ff0000ff
 62
256
370
-1
  6
BYLAYER
100
AcDbEntity
100
AcDbSpline
 70
8
 71
3
 72
8
 73
4
 74
0
 40
0.0
 40
0.0
 40
0.0
 40
0.0
 40
1.0
 40
1.0
 40
1.0
 40
1.0
 10
3.9354424495492637
 20
1.5326657606834455
 30
0.0
 10
3.8887369479202296
 20
1.5833441074988357
 30
0.0
 10
3.8104211308915121
 20
1.5612755781556906
 30
0.0
 10
3.7504708616235645
 20
1.5700156421515075
 30
0.0
  0
SPLINE
  5
8D
  8
color#ff0000ff
 62
256
370
-1
  6
BYLAYER
100
AcDbEntity
100
AcDbSpline
 70
8
 71
3
 72
8
 73
4
 74
0
 40
0.0
 40
0.0
 40
0.0
 40
0.0
 40
1.0
 40
1.0
 40
1.0
 40
1.0
 10
3.7504708616235645
 20
1.5700156421515075
 30
0.0
 10
3.3345157032355295
 20
1.5657627542850698
 30
0.0
 10
2.9181396099799271
 20
1.5777165944958287
 30
0.0
 10
2.5024763125727598
 20
1.5644005388632825
 30
0.0
  0
SPLINE
  5
8E
  8
color#ff0000ff
 62
256
370
-1
  6
BYLAYER
100
AcDbEntity
100
AcDbSpline
 70
8
 71
3
 72
8
 73
4
 74
0
 40
0.0
 40
0.0
 40
0.0
 40
0.0
 40
1.0
 40
1.0
 40
1.0
 40
1.0
 10
2.5024763125727598
 20
1.5644005388632825
 30
0.0
 10
2.4201270337678098
 20
1.5532608989398509
 30
0.0
 10
2.3938403248526017
 20
1.4658229627904926
 30
0.0
 10
2.3542783749253609
 20
1.4056229834886389
 30
0.0
  0
SPLINE
  5
8F
  8
color#ff0000ff
 62
256
370
-1
  6
BYLAYER
100
AcDbEntity
100
AcDbSpline
 70
8
 71
3
 72
8
 73
4
 74
0
 40
0.0
 40
0.0
 40
0.0
 40
0.0
 40
1.0
 40
1.0
 40
1.0
 40
1.0
 10
2.3542783749253609
 20
1.4056229834886389
 30
0.0
 10
2.1925281169890387
 20
1.4014910683104396
 30
0.0
 10
2.030723333551721
 20
1.4015815047467439
 30
0.0
 10
1.8690194443739714
 20
1.4059573037190669
 30
0.0
  0
SPLINE
  5
90
  8
color#ff0000ff
 62
256
370
-1
  6
BYLAYER
100
AcDbEntity
100
AcDbSpline
 70
8
 71
3
 72
8
 73
4
 74
0
 40
0.0
 40
0.0
 40
0.0
 40
0.0
 40
1.0
 40
1.0
 40
1.0
 40
1.0
 10
1.8690194443739714
 20
1.4059573037190669
 30
0.0
 10
1.8245005265341094
 20
1.4885677725884061
 30
0.0
 10
1.7678387367779191
 20
1.5927612087629042
 30
0.0
 10
1.6534280425979351
 20
1.5687538117214272
 30
0.0
  0
SPLINE
  5
91
  8
color#ff0000ff
 62
256
370
-1
  6
BYLAYER
100
AcDbEntity
100
AcDbSpline
 70
8
 71
3
 72
8
 73
4
 74
0
 40
0.0
 40
0.0
 40
0.0
 40
0.0
 40
1.0
 40
1.0
 40
1.0
 40
1.0
 10
1.6534280425979351
 20
1.5687538117214272
 30
0.0
 10
1.2365967161810805
 20
1.5699841838517443
 30
0.0
 10
0.8195524717448807
 20
1.5722766846525797
 30
0.0
 10
0.4027653589127475
 20
1.5675743157836994
 30
0.0
  0
SPLINE
  5
92
  8
color#ff0000ff
 62
256
370
-1
  6
BYLAYER
100
AcDbEntity
100
AcDbSpline
 70
8
 71
3
 72
8
 73
4
 74
0
 40
0.0
 40
0.0
 40
0.0
 40
0.0
 40
1.0
 40
1.0
 40
1.0
 40
1.0
 10
0.4027653589127475
 20
1.5675743157836994
 30
0.0
 10
0.335811150415005
 20
1.5814286083191298
 30
0.0
 10
0.2637673362324747
 20
1.5363271809720029
 30
0.0
 10
0.255806073272585
 20
1.4679568888491019
 30
0.0
  0
ENDSEC
  0
SECTION
  2
OBJECTS
  0
DICTIONARY
  5
C
100
AcDbDictionary
280
0
281
1
  3
ACAD_GROUP
350
D
  3
ACAD_LAYOUT
350
1A
  3
ACAD_MLINESTYLE
350
17
  3
ACAD_PLOTSETTINGS
350
19
  3
ACAD_PLOTSTYLENAME
350
E
  3
AcDbVariableDictionary
350
93
  0
DICTIONARY
  5
D
100
AcDbDictionary
280
0
281
1
  0
ACDBDICTIONARYWDFLT
  5
E
100
AcDbDictionary
281
1
  3
Normal
350
F
100
AcDbDictionaryWithDefault
340
F
  0
ACDBPLACEHOLDER
  5
F
  0
DICTIONARY
  5
17
100
AcDbDictionary
280
0
281
1
  3
Standard
350
18
  0
MLINESTYLE
  5
18
100
AcDbMlineStyle
  2
STANDARD
 70
0
  3

 62
256
 51
90.0
 52
90.0
 71
2
 49
0.5
 62
256
  6
BYLAYER
 49
-0.5
 62
256
  6
BYLAYER
  0
DICTIONARY
  5
19
100
AcDbDictionary
280
0
281
1
  0
DICTIONARY
  5
1A
100
AcDbDictionary
281
1
  3
Layout1
350
1E
  3
Layout2
350
26
  3
Model
350
22
  0
LAYOUT
  5
1E
100
AcDbPlotSettings
  1

  2
C:\Program Files\AutoCAD 2002\plotters\DWF ePlot (optimized for plotting).pc3
  4

  6

 40
0.0
 41
0.0
 42
0.0
 43
0.0
 44
0.0
 45
0.0
 46
0.0
 47
0.0
 48
0.0
 49
0.0
140
0.0
141
0.0
142
1.0
143
1.0
 70
688
 72
0
 73
0
 74
5
  7

 75
16
147
1.0
148
0.0
149
0.0
100
AcDbLayout
  1
Layout1
 70
1
 71
1
 10
0.0
 20
0.0
 11
420.0
 21
297.0
 12
0.0
 22
0.0
 32
0.0
 14
100000000000000000000.0
 24
100000000000000000000.0
 34
100000000000000000000.0
 15
-100000000000000000000.0
 25
-100000000000000000000.0
 35
-100000000000000000000.0
146
0.0
 13
0.0
 23
0.0
 33
0.0
 16
1.0
 26
0.0
 36
0.0
 17
0.0
 27
1.0
 37
0.0
 76
0
330
1B
  0
LAYOUT
  5
22
100
AcDbPlotSettings
  1

  2
C:\Program Files\AutoCAD 2002\plotters\DWF ePlot (optimized for plotting).pc3
  4

  6

 40
0.0
 41
0.0
 42
0.0
 43
0.0
 44
0.0
 45
0.0
 46
0.0
 47
0.0
 48
0.0
 49
0.0
140
0.0
141
0.0
142
1.0
143
1.0
 70
1712
 72
0
 73
0
 74
0
  7

 75
0
147
1.0
148
0.0
149
0.0
100
AcDbLayout
  1
Model
 70
1
 71
0
 10
0.0
 20
0.0
 11
12.0
 21
9.0
 12
0.0
 22
0.0
 32
0.0
 14
0.0
 24
0.0
 34
0.0
 15
0.0
 25
0.0
 35
0.0
146
0.0
 13
0.0
 23
0.0
 33
0.0
 16
1.0
 26
0.0
 36
0.0
 17
0.0
 27
1.0
 37
0.0
 76
0
330
1F
  0
LAYOUT
  5
26
100
AcDbPlotSettings
  1

  2
C:\Program Files\AutoCAD 2002\plotters\DWF ePlot (optimized for plotting).pc3
  4

  6

 40
0.0
 41
0.0
 42
0.0
 43
0.0
 44
0.0
 45
0.0
 46
0.0
 47
0.0
 48
0.0
 49
0.0
140
0.0
141
0.0
142
1.0
143
1.0
 70
688
 72
0
 73
0
 74
5
  7

 75
16
147
1.0
148
0.0
149
0.0
100
AcDbLayout
  1
Layout2
 70
1
 71
2
 10
0.0
 20
0.0
 11
12.0
 21
9.0
 12
0.0
 22
0.0
 32
0.0
 14
0.0
 24
0.0
 34
0.0
 15
0.0
 25
0.0
 35
0.0
146
0.0
 13
0.0
 23
0.0
 33
0.0
 16
1.0
 26
0.0
 36
0.0
 17
0.0
 27
1.0
 37
0.0
 76
0
330
23
  0
DICTIONARY
  5
93
100
AcDbDictionary
281
1
  3
DIMASSOC
350
95
  3
HIDETEXT
350
94
  0
DICTIONARYVAR
  5
94
100
DictionaryVariables
280
0
  1
2
  0
DICTIONARYVAR
  5
95
100
DictionaryVariables
280
0
  1
1
  0
ENDSEC
  0
EOF
