ISO-10303-21;
HEADER;
FILE_DESCRIPTION (( 'STEP AP214' ),
    '1' );
FILE_NAME ('Worm Gear Shaft.STEP',
    '2017-12-07T20:52:26',
    ( 'Doc' ),
    ( '' ),
    'SwSTEP 2.0',
    'SolidWorks 2017',
    '' );
FILE_SCHEMA (( 'AUTOMOTIVE_DESIGN' ));
ENDSEC;

DATA;
#1 = AXIS2_PLACEMENT_3D ( 'NONE', #75, #138, #287 ) ;
#2 = EDGE_CURVE ( 'NONE', #72, #37, #255, .T. ) ;
#3 = DIRECTION ( 'NONE',  ( -1.000000000000000000, 0.0000000000000000000, 0.0000000000000000000 ) ) ;
#4 = LENGTH_MEASURE_WITH_UNIT ( LENGTH_MEASURE( 0.02539999999999999900 ), #288 );
#5 = CIRCLE ( 'NONE', #26, 0.4375000000000000000 ) ;
#6 = DIRECTION ( 'NONE',  ( 0.0000000000000000000, 0.0000000000000000000, -1.000000000000000000 ) ) ;
#7 = AXIS2_PLACEMENT_3D ( 'NONE', #181, #172, #166 ) ;
#8 = AXIS2_PLACEMENT_3D ( 'NONE', #262, #257, #280 ) ;
#9 = ADVANCED_FACE ( 'NONE', ( #77 ), #234, .T. ) ;
#10 = LENGTH_MEASURE_WITH_UNIT ( LENGTH_MEASURE( 0.02539999999999999900 ), #308 );
#11 = LINE ( 'NONE', #73, #265 ) ;
#12 = ORIENTED_EDGE ( 'NONE', *, *, #130, .T. ) ;
#13 = CARTESIAN_POINT ( 'NONE',  ( 0.0000000000000000000, 0.0000000000000000000, -0.2500000000000000000 ) ) ;
#14 = DIRECTION ( 'NONE',  ( -0.0000000000000000000, -0.0000000000000000000, -1.000000000000000000 ) ) ;
#15 = PRODUCT_CONTEXT ( 'NONE', #90, 'mechanical' ) ;
#16 =( GEOMETRIC_REPRESENTATION_CONTEXT ( 3 ) GLOBAL_UNCERTAINTY_ASSIGNED_CONTEXT ( ( #217 ) ) GLOBAL_UNIT_ASSIGNED_CONTEXT ( ( #284, #285, #78 ) ) REPRESENTATION_CONTEXT ( 'NONE', 'WORKASPACE' ) );
#17 = ORIENTED_EDGE ( 'NONE', *, *, #263, .F. ) ;
#18 = CARTESIAN_POINT ( 'NONE',  ( 0.0000000000000000000, 0.0000000000000000000, -0.2500000000000000000 ) ) ;
#19 =( NAMED_UNIT ( * ) SI_UNIT ( $, .STERADIAN. ) SOLID_ANGLE_UNIT ( ) );
#20 = EDGE_CURVE ( 'NONE', #102, #274, #56, .T. ) ;
#21 = DIRECTION ( 'NONE',  ( -1.000000000000000000, 0.0000000000000000000, 0.0000000000000000000 ) ) ;
#22 = EDGE_LOOP ( 'NONE', ( #140, #163, #271, #98 ) ) ;
#23 = DIRECTION ( 'NONE',  ( -0.0000000000000000000, -0.0000000000000000000, -1.000000000000000000 ) ) ;
#24 = CIRCLE ( 'NONE', #150, 0.3115000000000000000 ) ;
#25 = ORIENTED_EDGE ( 'NONE', *, *, #2, .F. ) ;
#26 = AXIS2_PLACEMENT_3D ( 'NONE', #236, #94, #80 ) ;
#27 = FACE_OUTER_BOUND ( 'NONE', #81, .T. ) ;
#28 = ORIENTED_EDGE ( 'NONE', *, *, #20, .T. ) ;
#29 =( NAMED_UNIT ( * ) PLANE_ANGLE_UNIT ( ) SI_UNIT ( $, .RADIAN. ) );
#30 = EDGE_LOOP ( 'NONE', ( #188, #44 ) ) ;
#31 = DIMENSIONAL_EXPONENTS ( 1.000000000000000000, 0.0000000000000000000, 0.0000000000000000000, 0.0000000000000000000, 0.0000000000000000000, 0.0000000000000000000, 0.0000000000000000000 ) ;
#32 = EDGE_CURVE ( 'NONE', #113, #292, #5, .T. ) ;
#33 = ADVANCED_FACE ( 'Face1', ( #27 ), #141, .T. ) ;
#34 = VECTOR ( 'NONE', #219, 39.37007874015748100 ) ;
#35 = ORIENTED_EDGE ( 'NONE', *, *, #176, .F. ) ;
#36 = CARTESIAN_POINT ( 'NONE',  ( -0.2500000000000000000, 0.0000000000000000000, 2.378000000000000100 ) ) ;
#37 = VERTEX_POINT ( 'NONE', #243 ) ;
#38 = SURFACE_STYLE_FILL_AREA ( #153 ) ;
#39 = AXIS2_PLACEMENT_3D ( 'NONE', #233, #254, #212 ) ;
#40 = DIRECTION ( 'NONE',  ( -1.000000000000000000, 0.0000000000000000000, 0.0000000000000000000 ) ) ;
#41 = LINE ( 'NONE', #45, #291 ) ;
#42 =( CONVERSION_BASED_UNIT ( 'INCH', #10 ) LENGTH_UNIT ( ) NAMED_UNIT ( #197 ) );
#43 = DIRECTION ( 'NONE',  ( 1.000000000000000000, 0.0000000000000000000, 0.0000000000000000000 ) ) ;
#44 = ORIENTED_EDGE ( 'NONE', *, *, #298, .T. ) ;
#45 = CARTESIAN_POINT ( 'NONE',  ( -0.4375000000000000000, 5.357829746269670100E-017, -0.2500000000000000000 ) ) ;
#46 = COLOUR_RGB ( '',0.5019607843137254800, 0.5019607843137254800, 0.5019607843137254800 ) ;
#47 = AXIS2_PLACEMENT_3D ( 'NONE', #261, #185, #74 ) ;
#48 = DIRECTION ( 'NONE',  ( -1.000000000000000000, 0.0000000000000000000, 0.0000000000000000000 ) ) ;
#49 = DIRECTION ( 'NONE',  ( -1.000000000000000000, 0.0000000000000000000, -0.0000000000000000000 ) ) ;
#50 = EDGE_LOOP ( 'NONE', ( #17, #107, #276, #170 ) ) ;
#51 = STYLED_ITEM ( 'NONE', ( #240 ), #149 ) ;
#52 = ORIENTED_EDGE ( 'NONE', *, *, #293, .T. ) ;
#53 = VECTOR ( 'NONE', #164, 39.37007874015748100 ) ;
#54 = CARTESIAN_POINT ( 'NONE',  ( 0.0000000000000000000, 0.0000000000000000000, 5.378000000000000100 ) ) ;
#55 = DIRECTION ( 'NONE',  ( -1.000000000000000000, 0.0000000000000000000, 0.0000000000000000000 ) ) ;
#56 = CIRCLE ( 'NONE', #47, 0.3115000000000000000 ) ;
#57 = AXIS2_PLACEMENT_3D ( 'NONE', #209, #201, #193 ) ;
#58 = AXIS2_PLACEMENT_3D ( 'NONE', #54, #136, #48 ) ;
#59 = ADVANCED_FACE ( 'NONE', ( #148 ), #221, .T. ) ;
#60 = EDGE_LOOP ( 'NONE', ( #146, #267, #93, #167 ) ) ;
#61 = DIRECTION ( 'NONE',  ( 1.000000000000000000, 0.0000000000000000000, -0.0000000000000000000 ) ) ;
#62 = PRODUCT_DEFINITION_CONTEXT ( 'detailed design', #246, 'design' ) ;
#63 = FILL_AREA_STYLE_COLOUR ( '', #104 ) ;
#64 = PRESENTATION_LAYER_ASSIGNMENT (  '', '', ( #51 ) ) ;
#65 = DIRECTION ( 'NONE',  ( 0.0000000000000000000, 0.0000000000000000000, -1.000000000000000000 ) ) ;
#66 = ORIENTED_EDGE ( 'NONE', *, *, #126, .F. ) ;
#67 = CARTESIAN_POINT ( 'NONE',  ( 0.0000000000000000000, 0.0000000000000000000, 2.378000000000000100 ) ) ;
#68 = DIRECTION ( 'NONE',  ( -1.000000000000000000, 0.0000000000000000000, 0.0000000000000000000 ) ) ;
#69 = DIRECTION ( 'NONE',  ( 0.0000000000000000000, 0.0000000000000000000, 1.000000000000000000 ) ) ;
#70 = DIRECTION ( 'NONE',  ( 0.0000000000000000000, 0.0000000000000000000, -1.000000000000000000 ) ) ;
#71 = CIRCLE ( 'NONE', #272, 0.4375000000000000000 ) ;
#72 = VERTEX_POINT ( 'NONE', #277 ) ;
#73 = CARTESIAN_POINT ( 'NONE',  ( -0.3115000000000000000, 0.0000000000000000000, 2.378000000000000100 ) ) ;
#74 = DIRECTION ( 'NONE',  ( -1.000000000000000000, 0.0000000000000000000, 0.0000000000000000000 ) ) ;
#75 = CARTESIAN_POINT ( 'NONE',  ( 0.0000000000000000000, 0.0000000000000000000, 5.378000000000000100 ) ) ;
#76 = AXIS2_PLACEMENT_3D ( 'NONE', #161, #154, #137 ) ;
#77 = FACE_OUTER_BOUND ( 'NONE', #105, .T. ) ;
#78 =( NAMED_UNIT ( * ) SI_UNIT ( $, .STERADIAN. ) SOLID_ANGLE_UNIT ( ) );
#79 = ORIENTED_EDGE ( 'NONE', *, *, #190, .F. ) ;
#80 = DIRECTION ( 'NONE',  ( -1.000000000000000000, 0.0000000000000000000, 0.0000000000000000000 ) ) ;
#81 = EDGE_LOOP ( 'NONE', ( #79, #25, #52, #100 ) ) ;
#82 = MECHANICAL_DESIGN_GEOMETRIC_PRESENTATION_REPRESENTATION (  '', ( #51 ), #99 ) ;
#83 = CIRCLE ( 'NONE', #252, 0.4375000000000000000 ) ;
#84 = ADVANCED_FACE ( 'Face2', ( #214 ), #303, .T. ) ;
#85 = EDGE_CURVE ( 'NONE', #127, #259, #168, .T. ) ;
#86 = DIRECTION ( 'NONE',  ( 0.0000000000000000000, 0.0000000000000000000, 1.000000000000000000 ) ) ;
#87 = DIRECTION ( 'NONE',  ( 0.0000000000000000000, 0.0000000000000000000, 1.000000000000000000 ) ) ;
#88 = CARTESIAN_POINT ( 'NONE',  ( 0.0000000000000000000, 0.0000000000000000000, 0.0000000000000000000 ) ) ;
#89 = ORIENTED_EDGE ( 'NONE', *, *, #32, .T. ) ;
#90 = APPLICATION_CONTEXT ( 'automotive_design' ) ;
#91 = STYLED_ITEM ( 'NONE', ( #202 ), #200 ) ;
#92 = DIRECTION ( 'NONE',  ( 1.000000000000000000, 0.0000000000000000000, 0.0000000000000000000 ) ) ;
#93 = ORIENTED_EDGE ( 'NONE', *, *, #195, .T. ) ;
#94 = DIRECTION ( 'NONE',  ( 0.0000000000000000000, 0.0000000000000000000, -1.000000000000000000 ) ) ;
#95 = FACE_BOUND ( 'NONE', #223, .T. ) ;
#96 = FACE_OUTER_BOUND ( 'NONE', #208, .T. ) ;
#97 = DIRECTION ( 'NONE',  ( -0.0000000000000000000, -0.0000000000000000000, -1.000000000000000000 ) ) ;
#98 = ORIENTED_EDGE ( 'NONE', *, *, #195, .F. ) ;
#99 =( GEOMETRIC_REPRESENTATION_CONTEXT ( 3 ) GLOBAL_UNCERTAINTY_ASSIGNED_CONTEXT ( ( #160 ) ) GLOBAL_UNIT_ASSIGNED_CONTEXT ( ( #184, #227, #230 ) ) REPRESENTATION_CONTEXT ( 'NONE', 'WORKASPACE' ) );
#100 = ORIENTED_EDGE ( 'NONE', *, *, #20, .F. ) ;
#101 = PLANE ( 'NONE',  #198 ) ;
#102 = VERTEX_POINT ( 'NONE', #268 ) ;
#103 = PRESENTATION_LAYER_ASSIGNMENT (  '', '', ( #91 ) ) ;
#104 = COLOUR_RGB ( '',0.5019607843137254800, 0.5019607843137254800, 0.5019607843137254800 ) ;
#105 = EDGE_LOOP ( 'NONE', ( #12, #152 ) ) ;
#106 = CARTESIAN_POINT ( 'NONE',  ( 0.4375000000000000000, 0.0000000000000000000, -0.2500000000000000000 ) ) ;
#107 = ORIENTED_EDGE ( 'NONE', *, *, #229, .T. ) ;
#108 = FACE_OUTER_BOUND ( 'NONE', #204, .T. ) ;
#109 = SURFACE_SIDE_STYLE ('',( #269 ) ) ;
#110 = CARTESIAN_POINT ( 'NONE',  ( 0.0000000000000000000, 0.0000000000000000000, 2.378000000000000100 ) ) ;
#111 = CARTESIAN_POINT ( 'NONE',  ( 0.0000000000000000000, 0.0000000000000000000, -0.2500000000000000000 ) ) ;
#112 = DIRECTION ( 'NONE',  ( 0.0000000000000000000, 0.0000000000000000000, 1.000000000000000000 ) ) ;
#113 = VERTEX_POINT ( 'NONE', #301 ) ;
#114 = FILL_AREA_STYLE ('',( #128 ) ) ;
#115 = CIRCLE ( 'NONE', #76, 0.2500000000000000000 ) ;
#116 = APPLICATION_PROTOCOL_DEFINITION ( 'draft international standard', 'automotive_design', 1998, #90 ) ;
#117 = FACE_BOUND ( 'NONE', #225, .T. ) ;
#118 = CARTESIAN_POINT ( 'NONE',  ( 0.0000000000000000000, 0.0000000000000000000, 5.378000000000000100 ) ) ;
#119 = DIRECTION ( 'NONE',  ( 0.0000000000000000000, 0.0000000000000000000, -1.000000000000000000 ) ) ;
#120 =( LENGTH_UNIT ( ) NAMED_UNIT ( * ) SI_UNIT ( $, .METRE. ) );
#121 = CIRCLE ( 'NONE', #279, 0.3115000000000000000 ) ;
#122 = MECHANICAL_DESIGN_GEOMETRIC_PRESENTATION_REPRESENTATION (  '', ( #91 ), #132 ) ;
#123 = ORIENTED_EDGE ( 'NONE', *, *, #182, .F. ) ;
#124 = FACE_OUTER_BOUND ( 'NONE', #245, .T. ) ;
#125 = ADVANCED_FACE ( 'NONE', ( #228 ), #133, .T. ) ;
#126 = EDGE_CURVE ( 'NONE', #292, #113, #71, .T. ) ;
#127 = VERTEX_POINT ( 'NONE', #260 ) ;
#128 = FILL_AREA_STYLE_COLOUR ( '', #46 ) ;
#129 = CARTESIAN_POINT ( 'NONE',  ( 0.2500000000000000000, 3.061616997868382400E-017, 5.378000000000000100 ) ) ;
#130 = EDGE_CURVE ( 'NONE', #278, #155, #83, .T. ) ;
#131 = ORIENTED_EDGE ( 'NONE', *, *, #293, .F. ) ;
#132 =( GEOMETRIC_REPRESENTATION_CONTEXT ( 3 ) GLOBAL_UNCERTAINTY_ASSIGNED_CONTEXT ( ( #286 ) ) GLOBAL_UNIT_ASSIGNED_CONTEXT ( ( #42, #29, #19 ) ) REPRESENTATION_CONTEXT ( 'NONE', 'WORKASPACE' ) );
#133 = CYLINDRICAL_SURFACE ( 'NONE', #8, 0.4375000000000000000 ) ;
#134 = ORIENTED_EDGE ( 'NONE', *, *, #215, .T. ) ;
#135 = CARTESIAN_POINT ( 'NONE',  ( 0.2500000000000000000, 3.061616997868382400E-017, 5.378000000000000100 ) ) ;
#136 = DIRECTION ( 'NONE',  ( -0.0000000000000000000, -0.0000000000000000000, -1.000000000000000000 ) ) ;
#137 = DIRECTION ( 'NONE',  ( 1.000000000000000000, 0.0000000000000000000, 0.0000000000000000000 ) ) ;
#138 = DIRECTION ( 'NONE',  ( 0.0000000000000000000, 0.0000000000000000000, 1.000000000000000000 ) ) ;
#139 = PRODUCT_DEFINITION_SHAPE ( 'NONE', 'NONE',  #157 ) ;
#140 = ORIENTED_EDGE ( 'NONE', *, *, #298, .F. ) ;
#141 = CYLINDRICAL_SURFACE ( 'NONE', #249, 0.3115000000000000000 ) ;
#142 = AXIS2_PLACEMENT_3D ( 'NONE', #309, #86, #290 ) ;
#143 = VERTEX_POINT ( 'NONE', #242 ) ;
#144 = CARTESIAN_POINT ( 'NONE',  ( 0.3115000000000000000, 3.814774779344005400E-017, 2.378000000000000100 ) ) ;
#145 = CARTESIAN_POINT ( 'NONE',  ( 0.0000000000000000000, 0.0000000000000000000, 2.378000000000000100 ) ) ;
#146 = ORIENTED_EDGE ( 'NONE', *, *, #207, .F. ) ;
#147 = EDGE_CURVE ( 'NONE', #278, #113, #191, .T. ) ;
#148 = FACE_OUTER_BOUND ( 'NONE', #30, .T. ) ;
#149 = ADVANCED_BREP_SHAPE_REPRESENTATION ( 'Worm Gear Shaft', ( #200, #142 ), #16 ) ;
#150 = AXIS2_PLACEMENT_3D ( 'NONE', #88, #70, #68 ) ;
#151 = ADVANCED_FACE ( 'NONE', ( #108 ), #253, .T. ) ;
#152 = ORIENTED_EDGE ( 'NONE', *, *, #263, .T. ) ;
#153 = FILL_AREA_STYLE ('',( #63 ) ) ;
#154 = DIRECTION ( 'NONE',  ( 0.0000000000000000000, 0.0000000000000000000, 1.000000000000000000 ) ) ;
#155 = VERTEX_POINT ( 'NONE', #206 ) ;
#156 = CARTESIAN_POINT ( 'NONE',  ( -0.3115000000000000000, 0.0000000000000000000, 0.0000000000000000000 ) ) ;
#157 = PRODUCT_DEFINITION ( 'UNKNOWN', '', #175, #62 ) ;
#158 = SURFACE_SIDE_STYLE ('',( #38 ) ) ;
#159 = CYLINDRICAL_SURFACE ( 'NONE', #296, 0.3115000000000000000 ) ;
#160 = UNCERTAINTY_MEASURE_WITH_UNIT (LENGTH_MEASURE( 1.000000000000000100E-005 ), #184, 'distance_accuracy_value', 'NONE');
#161 = CARTESIAN_POINT ( 'NONE',  ( 0.0000000000000000000, 0.0000000000000000000, 2.378000000000000100 ) ) ;
#162 = AXIS2_PLACEMENT_3D ( 'NONE', #256, #282, #61 ) ;
#163 = ORIENTED_EDGE ( 'NONE', *, *, #207, .T. ) ;
#164 = DIRECTION ( 'NONE',  ( -0.0000000000000000000, -0.0000000000000000000, -1.000000000000000000 ) ) ;
#165 = LENGTH_MEASURE_WITH_UNIT ( LENGTH_MEASURE( 0.02539999999999999900 ), #120 );
#166 = DIRECTION ( 'NONE',  ( 1.000000000000000000, 0.0000000000000000000, 0.0000000000000000000 ) ) ;
#167 = ORIENTED_EDGE ( 'NONE', *, *, #182, .T. ) ;
#168 = CIRCLE ( 'NONE', #241, 0.2500000000000000000 ) ;
#169 = CARTESIAN_POINT ( 'NONE',  ( -0.4375000000000000000, 5.357829746269670100E-017, 0.0000000000000000000 ) ) ;
#170 = ORIENTED_EDGE ( 'NONE', *, *, #147, .F. ) ;
#171 = LINE ( 'NONE', #186, #222 ) ;
#172 = DIRECTION ( 'NONE',  ( 0.0000000000000000000, 0.0000000000000000000, 1.000000000000000000 ) ) ;
#173 = FACE_OUTER_BOUND ( 'NONE', #22, .T. ) ;
#174 = ADVANCED_FACE ( 'NONE', ( #124, #117 ), #203, .T. ) ;
#175 = PRODUCT_DEFINITION_FORMATION_WITH_SPECIFIED_SOURCE ( 'ANY', '', #302, .NOT_KNOWN. ) ;
#176 = EDGE_CURVE ( 'NONE', #143, #250, #178, .T. ) ;
#177 = AXIS2_PLACEMENT_3D ( 'NONE', #264, #69, #43 ) ;
#178 = CIRCLE ( 'NONE', #7, 0.2500000000000000000 ) ;
#179 = CIRCLE ( 'NONE', #1, 0.2500000000000000000 ) ;
#180 = SURFACE_STYLE_USAGE ( .BOTH. , #158 ) ;
#181 = CARTESIAN_POINT ( 'NONE',  ( 0.0000000000000000000, 0.0000000000000000000, 2.378000000000000100 ) ) ;
#182 = EDGE_CURVE ( 'NONE', #250, #143, #115, .T. ) ;
#183 = CARTESIAN_POINT ( 'NONE',  ( 0.0000000000000000000, 0.0000000000000000000, 0.0000000000000000000 ) ) ;
#184 =( CONVERSION_BASED_UNIT ( 'INCH', #165 ) LENGTH_UNIT ( ) NAMED_UNIT ( #31 ) );
#185 = DIRECTION ( 'NONE',  ( 0.0000000000000000000, 0.0000000000000000000, -1.000000000000000000 ) ) ;
#186 = CARTESIAN_POINT ( 'NONE',  ( -0.2500000000000000000, 0.0000000000000000000, 5.378000000000000100 ) ) ;
#187 = DIRECTION ( 'NONE',  ( -0.0000000000000000000, -0.0000000000000000000, -1.000000000000000000 ) ) ;
#188 = ORIENTED_EDGE ( 'NONE', *, *, #85, .T. ) ;
#189 = PRODUCT_RELATED_PRODUCT_CATEGORY ( 'part', '', ( #302 ) ) ;
#190 = EDGE_CURVE ( 'NONE', #37, #102, #237, .T. ) ;
#191 = LINE ( 'NONE', #307, #34 ) ;
#192 = ORIENTED_EDGE ( 'NONE', *, *, #281, .F. ) ;
#193 = DIRECTION ( 'NONE',  ( 1.000000000000000000, 0.0000000000000000000, -0.0000000000000000000 ) ) ;
#194 = CARTESIAN_POINT ( 'NONE',  ( 0.0000000000000000000, 0.0000000000000000000, 5.378000000000000100 ) ) ;
#195 = EDGE_CURVE ( 'NONE', #127, #250, #171, .T. ) ;
#196 = CLOSED_SHELL ( 'NONE', ( #125, #251, #275, #174, #33, #84, #59, #224, #151, #9 ) ) ;
#197 = DIMENSIONAL_EXPONENTS ( 1.000000000000000000, 0.0000000000000000000, 0.0000000000000000000, 0.0000000000000000000, 0.0000000000000000000, 0.0000000000000000000, 0.0000000000000000000 ) ;
#198 = AXIS2_PLACEMENT_3D ( 'NONE', #183, #65, #49 ) ;
#199 = ORIENTED_EDGE ( 'NONE', *, *, #147, .T. ) ;
#200 = MANIFOLD_SOLID_BREP ( 'Boss-Extrude2', #196 ) ;
#201 = DIRECTION ( 'NONE',  ( 0.0000000000000000000, 0.0000000000000000000, 1.000000000000000000 ) ) ;
#202 = PRESENTATION_STYLE_ASSIGNMENT (( #294 ) ) ;
#203 = PLANE ( 'NONE',  #57 ) ;
#204 = EDGE_LOOP ( 'NONE', ( #270, #235, #199, #89 ) ) ;
#205 = DIRECTION ( 'NONE',  ( -0.0000000000000000000, -0.0000000000000000000, -1.000000000000000000 ) ) ;
#206 = CARTESIAN_POINT ( 'NONE',  ( -0.4375000000000000000, 5.357829746269670100E-017, -0.2500000000000000000 ) ) ;
#207 = EDGE_CURVE ( 'NONE', #259, #143, #210, .T. ) ;
#208 = EDGE_LOOP ( 'NONE', ( #226, #66 ) ) ;
#209 = CARTESIAN_POINT ( 'NONE',  ( 0.0000000000000000000, 0.0000000000000000000, 2.378000000000000100 ) ) ;
#210 = LINE ( 'NONE', #129, #273 ) ;
#211 = SHAPE_DEFINITION_REPRESENTATION ( #139, #149 ) ;
#212 = DIRECTION ( 'NONE',  ( 1.000000000000000000, 0.0000000000000000000, 0.0000000000000000000 ) ) ;
#213 = EDGE_LOOP ( 'NONE', ( #192, #218, #289, #131 ) ) ;
#214 = FACE_OUTER_BOUND ( 'NONE', #60, .T. ) ;
#215 = EDGE_CURVE ( 'NONE', #274, #102, #24, .T. ) ;
#216 = AXIS2_PLACEMENT_3D ( 'NONE', #13, #6, #3 ) ;
#217 = UNCERTAINTY_MEASURE_WITH_UNIT (LENGTH_MEASURE( 1.000000000000000100E-005 ), #284, 'distance_accuracy_value', 'NONE');
#218 = ORIENTED_EDGE ( 'NONE', *, *, #190, .T. ) ;
#219 = DIRECTION ( 'NONE',  ( -0.0000000000000000000, -0.0000000000000000000, 1.000000000000000000 ) ) ;
#220 = DIRECTION ( 'NONE',  ( -0.0000000000000000000, -0.0000000000000000000, 1.000000000000000000 ) ) ;
#221 = PLANE ( 'NONE',  #162 ) ;
#222 = VECTOR ( 'NONE', #187, 39.37007874015748100 ) ;
#223 = EDGE_LOOP ( 'NONE', ( #134, #28 ) ) ;
#224 = ADVANCED_FACE ( 'Face3', ( #96, #95 ), #101, .F. ) ;
#225 = EDGE_LOOP ( 'NONE', ( #123, #35 ) ) ;
#226 = ORIENTED_EDGE ( 'NONE', *, *, #32, .F. ) ;
#227 =( NAMED_UNIT ( * ) PLANE_ANGLE_UNIT ( ) SI_UNIT ( $, .RADIAN. ) );
#228 = FACE_OUTER_BOUND ( 'NONE', #50, .T. ) ;
#229 = EDGE_CURVE ( 'NONE', #155, #292, #41, .T. ) ;
#230 =( NAMED_UNIT ( * ) SI_UNIT ( $, .STERADIAN. ) SOLID_ANGLE_UNIT ( ) );
#231 = CYLINDRICAL_SURFACE ( 'NONE', #232, 0.2500000000000000000 ) ;
#232 = AXIS2_PLACEMENT_3D ( 'NONE', #194, #23, #40 ) ;
#233 = CARTESIAN_POINT ( 'NONE',  ( 0.0000000000000000000, 0.0000000000000000000, -0.2500000000000000000 ) ) ;
#234 = PLANE ( 'NONE',  #244 ) ;
#235 = ORIENTED_EDGE ( 'NONE', *, *, #130, .F. ) ;
#236 = CARTESIAN_POINT ( 'NONE',  ( 0.0000000000000000000, 0.0000000000000000000, 0.0000000000000000000 ) ) ;
#237 = LINE ( 'NONE', #144, #53 ) ;
#238 = DIRECTION ( 'NONE',  ( -1.000000000000000000, 0.0000000000000000000, 0.0000000000000000000 ) ) ;
#239 = DIRECTION ( 'NONE',  ( -1.000000000000000000, 0.0000000000000000000, 0.0000000000000000000 ) ) ;
#240 = PRESENTATION_STYLE_ASSIGNMENT (( #180 ) ) ;
#241 = AXIS2_PLACEMENT_3D ( 'NONE', #118, #112, #92 ) ;
#242 = CARTESIAN_POINT ( 'NONE',  ( 0.2500000000000000000, 3.061616997868382400E-017, 2.378000000000000100 ) ) ;
#243 = CARTESIAN_POINT ( 'NONE',  ( 0.3115000000000000000, 3.814774779344005400E-017, 2.378000000000000100 ) ) ;
#244 = AXIS2_PLACEMENT_3D ( 'NONE', #111, #300, #306 ) ;
#245 = EDGE_LOOP ( 'NONE', ( #299, #295 ) ) ;
#246 = APPLICATION_CONTEXT ( 'automotive_design' ) ;
#247 = DIRECTION ( 'NONE',  ( 0.0000000000000000000, 0.0000000000000000000, -1.000000000000000000 ) ) ;
#248 = CARTESIAN_POINT ( 'NONE',  ( 0.0000000000000000000, 0.0000000000000000000, 0.0000000000000000000 ) ) ;
#249 = AXIS2_PLACEMENT_3D ( 'NONE', #145, #205, #55 ) ;
#250 = VERTEX_POINT ( 'NONE', #36 ) ;
#251 = ADVANCED_FACE ( 'Face2', ( #173 ), #231, .T. ) ;
#252 = AXIS2_PLACEMENT_3D ( 'NONE', #18, #119, #238 ) ;
#253 = CYLINDRICAL_SURFACE ( 'NONE', #39, 0.4375000000000000000 ) ;
#254 = DIRECTION ( 'NONE',  ( -0.0000000000000000000, -0.0000000000000000000, 1.000000000000000000 ) ) ;
#255 = CIRCLE ( 'NONE', #177, 0.3115000000000000000 ) ;
#256 = CARTESIAN_POINT ( 'NONE',  ( 0.0000000000000000000, 0.0000000000000000000, 5.378000000000000100 ) ) ;
#257 = DIRECTION ( 'NONE',  ( -0.0000000000000000000, -0.0000000000000000000, 1.000000000000000000 ) ) ;
#258 = FACE_OUTER_BOUND ( 'NONE', #213, .T. ) ;
#259 = VERTEX_POINT ( 'NONE', #135 ) ;
#260 = CARTESIAN_POINT ( 'NONE',  ( -0.2500000000000000000, 0.0000000000000000000, 5.378000000000000100 ) ) ;
#261 = CARTESIAN_POINT ( 'NONE',  ( 0.0000000000000000000, 0.0000000000000000000, 0.0000000000000000000 ) ) ;
#262 = CARTESIAN_POINT ( 'NONE',  ( 0.0000000000000000000, 0.0000000000000000000, -0.2500000000000000000 ) ) ;
#263 = EDGE_CURVE ( 'NONE', #155, #278, #283, .T. ) ;
#264 = CARTESIAN_POINT ( 'NONE',  ( 0.0000000000000000000, 0.0000000000000000000, 2.378000000000000100 ) ) ;
#265 = VECTOR ( 'NONE', #304, 39.37007874015748100 ) ;
#266 = APPLICATION_PROTOCOL_DEFINITION ( 'draft international standard', 'automotive_design', 1998, #246 ) ;
#267 = ORIENTED_EDGE ( 'NONE', *, *, #85, .F. ) ;
#268 = CARTESIAN_POINT ( 'NONE',  ( 0.3115000000000000000, 3.814774779344005400E-017, 0.0000000000000000000 ) ) ;
#269 = SURFACE_STYLE_FILL_AREA ( #114 ) ;
#270 = ORIENTED_EDGE ( 'NONE', *, *, #229, .F. ) ;
#271 = ORIENTED_EDGE ( 'NONE', *, *, #176, .T. ) ;
#272 = AXIS2_PLACEMENT_3D ( 'NONE', #248, #247, #239 ) ;
#273 = VECTOR ( 'NONE', #97, 39.37007874015748100 ) ;
#274 = VERTEX_POINT ( 'NONE', #156 ) ;
#275 = ADVANCED_FACE ( 'Face1', ( #258 ), #159, .T. ) ;
#276 = ORIENTED_EDGE ( 'NONE', *, *, #126, .T. ) ;
#277 = CARTESIAN_POINT ( 'NONE',  ( -0.3115000000000000000, 0.0000000000000000000, 2.378000000000000100 ) ) ;
#278 = VERTEX_POINT ( 'NONE', #106 ) ;
#279 = AXIS2_PLACEMENT_3D ( 'NONE', #67, #87, #305 ) ;
#280 = DIRECTION ( 'NONE',  ( 1.000000000000000000, 0.0000000000000000000, 0.0000000000000000000 ) ) ;
#281 = EDGE_CURVE ( 'NONE', #37, #72, #121, .T. ) ;
#282 = DIRECTION ( 'NONE',  ( 0.0000000000000000000, 0.0000000000000000000, 1.000000000000000000 ) ) ;
#283 = CIRCLE ( 'NONE', #216, 0.4375000000000000000 ) ;
#284 =( CONVERSION_BASED_UNIT ( 'INCH', #4 ) LENGTH_UNIT ( ) NAMED_UNIT ( #297 ) );
#285 =( NAMED_UNIT ( * ) PLANE_ANGLE_UNIT ( ) SI_UNIT ( $, .RADIAN. ) );
#286 = UNCERTAINTY_MEASURE_WITH_UNIT (LENGTH_MEASURE( 1.000000000000000100E-005 ), #42, 'distance_accuracy_value', 'NONE');
#287 = DIRECTION ( 'NONE',  ( 1.000000000000000000, 0.0000000000000000000, 0.0000000000000000000 ) ) ;
#288 =( LENGTH_UNIT ( ) NAMED_UNIT ( * ) SI_UNIT ( $, .METRE. ) );
#289 = ORIENTED_EDGE ( 'NONE', *, *, #215, .F. ) ;
#290 = DIRECTION ( 'NONE',  ( 1.000000000000000000, 0.0000000000000000000, 0.0000000000000000000 ) ) ;
#291 = VECTOR ( 'NONE', #220, 39.37007874015748100 ) ;
#292 = VERTEX_POINT ( 'NONE', #169 ) ;
#293 = EDGE_CURVE ( 'NONE', #72, #274, #11, .T. ) ;
#294 = SURFACE_STYLE_USAGE ( .BOTH. , #109 ) ;
#295 = ORIENTED_EDGE ( 'NONE', *, *, #281, .T. ) ;
#296 = AXIS2_PLACEMENT_3D ( 'NONE', #110, #14, #21 ) ;
#297 = DIMENSIONAL_EXPONENTS ( 1.000000000000000000, 0.0000000000000000000, 0.0000000000000000000, 0.0000000000000000000, 0.0000000000000000000, 0.0000000000000000000, 0.0000000000000000000 ) ;
#298 = EDGE_CURVE ( 'NONE', #259, #127, #179, .T. ) ;
#299 = ORIENTED_EDGE ( 'NONE', *, *, #2, .T. ) ;
#300 = DIRECTION ( 'NONE',  ( 0.0000000000000000000, 0.0000000000000000000, -1.000000000000000000 ) ) ;
#301 = CARTESIAN_POINT ( 'NONE',  ( 0.4375000000000000000, 0.0000000000000000000, 0.0000000000000000000 ) ) ;
#302 = PRODUCT ( 'Worm Gear Shaft', 'Worm Gear Shaft', '', ( #15 ) ) ;
#303 = CYLINDRICAL_SURFACE ( 'NONE', #58, 0.2500000000000000000 ) ;
#304 = DIRECTION ( 'NONE',  ( -0.0000000000000000000, -0.0000000000000000000, -1.000000000000000000 ) ) ;
#305 = DIRECTION ( 'NONE',  ( 1.000000000000000000, 0.0000000000000000000, 0.0000000000000000000 ) ) ;
#306 = DIRECTION ( 'NONE',  ( -1.000000000000000000, 0.0000000000000000000, -0.0000000000000000000 ) ) ;
#307 = CARTESIAN_POINT ( 'NONE',  ( 0.4375000000000000000, 0.0000000000000000000, -0.2500000000000000000 ) ) ;
#308 =( LENGTH_UNIT ( ) NAMED_UNIT ( * ) SI_UNIT ( $, .METRE. ) );
#309 = CARTESIAN_POINT ( 'NONE',  ( 0.0000000000000000000, 0.0000000000000000000, 0.0000000000000000000 ) ) ;
ENDSEC;
END-ISO-10303-21;
