ISO-10303-21;
HEADER;
FILE_DESCRIPTION (( 'STEP AP214' ),
    '1' );
FILE_NAME ('Offset Shaft.STEP',
    '2017-12-07T20:52:07',
    ( 'Doc' ),
    ( '' ),
    'SwSTEP 2.0',
    'SolidWorks 2017',
    '' );
FILE_SCHEMA (( 'AUTOMOTIVE_DESIGN' ));
ENDSEC;

DATA;
#1 = CARTESIAN_POINT ( 'NONE',  ( 0.6250000000000000000, 0.0000000000000000000, 0.0000000000000000000 ) ) ;
#2 = CIRCLE ( 'NONE', #178, 0.2999999999999999300 ) ;
#3 = DIRECTION ( 'NONE',  ( 0.0000000000000000000, 0.0000000000000000000, -1.000000000000000000 ) ) ;
#4 = ORIENTED_EDGE ( 'NONE', *, *, #14, .F. ) ;
#5 = AXIS2_PLACEMENT_3D ( 'NONE', #19, #98, #328 ) ;
#6 = STYLED_ITEM ( 'NONE', ( #175 ), #335 ) ;
#7 = ORIENTED_EDGE ( 'NONE', *, *, #37, .F. ) ;
#8 = ORIENTED_EDGE ( 'NONE', *, *, #51, .T. ) ;
#9 = FACE_OUTER_BOUND ( 'NONE', #155, .T. ) ;
#10 = LINE ( 'NONE', #52, #236 ) ;
#11 = CARTESIAN_POINT ( 'NONE',  ( 7.000000000000000000, 0.0000000000000000000, 0.2999999999999999900 ) ) ;
#12 = FILL_AREA_STYLE ('',( #144 ) ) ;
#13 = EDGE_LOOP ( 'NONE', ( #141, #59 ) ) ;
#14 = EDGE_CURVE ( 'NONE', #50, #338, #94, .T. ) ;
#15 = UNCERTAINTY_MEASURE_WITH_UNIT (LENGTH_MEASURE( 1.000000000000000100E-005 ), #341, 'distance_accuracy_value', 'NONE');
#16 = AXIS2_PLACEMENT_3D ( 'NONE', #207, #230, #289 ) ;
#17 = ORIENTED_EDGE ( 'NONE', *, *, #218, .T. ) ;
#18 = FACE_OUTER_BOUND ( 'NONE', #13, .T. ) ;
#19 = CARTESIAN_POINT ( 'NONE',  ( 7.000000000000000000, 0.0000000000000000000, 0.0000000000000000000 ) ) ;
#20 = AXIS2_PLACEMENT_3D ( 'NONE', #320, #376, #370 ) ;
#21 = CIRCLE ( 'NONE', #16, 0.2499999999999999200 ) ;
#22 = DIRECTION ( 'NONE',  ( 0.0000000000000000000, 0.0000000000000000000, 1.000000000000000000 ) ) ;
#23 = ADVANCED_FACE ( 'Face2', ( #368, #131 ), #118, .T. ) ;
#24 = DIRECTION ( 'NONE',  ( 1.000000000000000000, 0.0000000000000000000, 0.0000000000000000000 ) ) ;
#25 = ORIENTED_EDGE ( 'NONE', *, *, #301, .F. ) ;
#26 = DIRECTION ( 'NONE',  ( 0.0000000000000000000, 0.0000000000000000000, -1.000000000000000000 ) ) ;
#27 = DIRECTION ( 'NONE',  ( -1.000000000000000000, -0.0000000000000000000, -0.0000000000000000000 ) ) ;
#28 = PRESENTATION_LAYER_ASSIGNMENT (  '', '', ( #6 ) ) ;
#29 = CARTESIAN_POINT ( 'NONE',  ( 7.000000000000000000, 0.0000000000000000000, 0.0000000000000000000 ) ) ;
#30 = ORIENTED_EDGE ( 'NONE', *, *, #167, .F. ) ;
#31 = PLANE ( 'NONE',  #210 ) ;
#32 = VECTOR ( 'NONE', #199, 39.37007874015748100 ) ;
#33 = SURFACE_SIDE_STYLE ('',( #259 ) ) ;
#34 = DIRECTION ( 'NONE',  ( 1.000000000000000000, 0.0000000000000000000, 0.0000000000000000000 ) ) ;
#35 = EDGE_LOOP ( 'NONE', ( #340, #93 ) ) ;
#36 = LINE ( 'NONE', #152, #275 ) ;
#37 = EDGE_CURVE ( 'NONE', #242, #188, #102, .T. ) ;
#38 = AXIS2_PLACEMENT_3D ( 'NONE', #119, #318, #71 ) ;
#39 = ORIENTED_EDGE ( 'NONE', *, *, #125, .F. ) ;
#40 = ORIENTED_EDGE ( 'NONE', *, *, #158, .F. ) ;
#41 = CYLINDRICAL_SURFACE ( 'NONE', #38, 0.2999999999999999900 ) ;
#42 = PRODUCT_DEFINITION ( 'UNKNOWN', '', #66, #377 ) ;
#43 = APPLICATION_CONTEXT ( 'automotive_design' ) ;
#44 = FACE_BOUND ( 'NONE', #295, .T. ) ;
#45 = FACE_OUTER_BOUND ( 'NONE', #249, .T. ) ;
#46 = MECHANICAL_DESIGN_GEOMETRIC_PRESENTATION_REPRESENTATION (  '', ( #6 ), #73 ) ;
#47 = VERTEX_POINT ( 'NONE', #88 ) ;
#48 = ADVANCED_FACE ( 'NONE', ( #185 ), #41, .T. ) ;
#49 = DIRECTION ( 'NONE',  ( 1.000000000000000000, 0.0000000000000000000, 0.0000000000000000000 ) ) ;
#50 = VERTEX_POINT ( 'NONE', #181 ) ;
#51 = EDGE_CURVE ( 'NONE', #217, #338, #279, .T. ) ;
#52 = CARTESIAN_POINT ( 'NONE',  ( 7.000000000000000000, 3.673940397442058900E-017, -0.2999999999999999900 ) ) ;
#53 = EDGE_CURVE ( 'NONE', #217, #323, #21, .T. ) ;
#54 = DIRECTION ( 'NONE',  ( -1.000000000000000000, -0.0000000000000000000, -0.0000000000000000000 ) ) ;
#55 = CYLINDRICAL_SURFACE ( 'NONE', #298, 0.2687499999999999300 ) ;
#56 = DIRECTION ( 'NONE',  ( 0.0000000000000000000, 0.0000000000000000000, 1.000000000000000000 ) ) ;
#57 = AXIS2_PLACEMENT_3D ( 'NONE', #226, #186, #170 ) ;
#58 = UNCERTAINTY_MEASURE_WITH_UNIT (LENGTH_MEASURE( 1.000000000000000100E-005 ), #282, 'distance_accuracy_value', 'NONE');
#59 = ORIENTED_EDGE ( 'NONE', *, *, #37, .T. ) ;
#60 = CARTESIAN_POINT ( 'NONE',  ( 6.531249999999999100, 0.0000000000000000000, 0.0000000000000000000 ) ) ;
#61 = LINE ( 'NONE', #11, #202 ) ;
#62 = CARTESIAN_POINT ( 'NONE',  ( 7.000000000000000000, 0.0000000000000000000, 0.0000000000000000000 ) ) ;
#63 =( NAMED_UNIT ( * ) SI_UNIT ( $, .STERADIAN. ) SOLID_ANGLE_UNIT ( ) );
#64 = ORIENTED_EDGE ( 'NONE', *, *, #190, .F. ) ;
#65 = DIRECTION ( 'NONE',  ( 0.0000000000000000000, 0.0000000000000000000, 1.000000000000000000 ) ) ;
#66 = PRODUCT_DEFINITION_FORMATION_WITH_SPECIFIED_SOURCE ( 'ANY', '', #101, .NOT_KNOWN. ) ;
#67 = FILL_AREA_STYLE ('',( #272 ) ) ;
#68 = DIRECTION ( 'NONE',  ( 1.000000000000000000, -0.0000000000000000000, -0.0000000000000000000 ) ) ;
#69 = LENGTH_MEASURE_WITH_UNIT ( LENGTH_MEASURE( 0.02539999999999999900 ), #76 );
#70 = VERTEX_POINT ( 'NONE', #189 ) ;
#71 = DIRECTION ( 'NONE',  ( 0.0000000000000000000, 0.0000000000000000000, 1.000000000000000000 ) ) ;
#72 = EDGE_CURVE ( 'NONE', #273, #70, #255, .T. ) ;
#73 =( GEOMETRIC_REPRESENTATION_CONTEXT ( 3 ) GLOBAL_UNCERTAINTY_ASSIGNED_CONTEXT ( ( #87 ) ) GLOBAL_UNIT_ASSIGNED_CONTEXT ( ( #184, #237, #63 ) ) REPRESENTATION_CONTEXT ( 'NONE', 'WORKASPACE' ) );
#74 = VECTOR ( 'NONE', #274, 39.37007874015748100 ) ;
#75 = CARTESIAN_POINT ( 'NONE',  ( 6.499999999999999100, 3.673940397442058900E-017, -0.2999999999999999300 ) ) ;
#76 =( LENGTH_UNIT ( ) NAMED_UNIT ( * ) SI_UNIT ( $, .METRE. ) );
#77 = APPLICATION_CONTEXT ( 'automotive_design' ) ;
#78 = ORIENTED_EDGE ( 'NONE', *, *, #85, .F. ) ;
#79 = AXIS2_PLACEMENT_3D ( 'NONE', #194, #367, #164 ) ;
#80 = ORIENTED_EDGE ( 'NONE', *, *, #314, .T. ) ;
#81 = FACE_OUTER_BOUND ( 'NONE', #129, .T. ) ;
#82 = ADVANCED_FACE ( 'NONE', ( #339 ), #271, .T. ) ;
#83 = CIRCLE ( 'NONE', #205, 0.2999999999999999300 ) ;
#84 = DIRECTION ( 'NONE',  ( 0.0000000000000000000, 0.0000000000000000000, -1.000000000000000000 ) ) ;
#85 = EDGE_CURVE ( 'NONE', #344, #47, #193, .T. ) ;
#86 = DIRECTION ( 'NONE',  ( 0.0000000000000000000, 0.0000000000000000000, -1.000000000000000000 ) ) ;
#87 = UNCERTAINTY_MEASURE_WITH_UNIT (LENGTH_MEASURE( 1.000000000000000100E-005 ), #184, 'distance_accuracy_value', 'NONE');
#88 = CARTESIAN_POINT ( 'NONE',  ( 0.6250000000000000000, 0.0000000000000000000, 0.2999999999999999300 ) ) ;
#89 = ORIENTED_EDGE ( 'NONE', *, *, #106, .F. ) ;
#90 = CARTESIAN_POINT ( 'NONE',  ( 0.6250000000000000000, 0.0000000000000000000, 0.0000000000000000000 ) ) ;
#91 = PRODUCT_RELATED_PRODUCT_CATEGORY ( 'part', '', ( #101 ) ) ;
#92 = CARTESIAN_POINT ( 'NONE',  ( 7.000000000000000000, 0.0000000000000000000, 0.0000000000000000000 ) ) ;
#93 = ORIENTED_EDGE ( 'NONE', *, *, #14, .T. ) ;
#94 = CIRCLE ( 'NONE', #363, 0.2499999999999999200 ) ;
#95 = DIRECTION ( 'NONE',  ( 0.0000000000000000000, 0.0000000000000000000, 1.000000000000000000 ) ) ;
#96 = CARTESIAN_POINT ( 'NONE',  ( 6.499999999999999100, 0.0000000000000000000, 0.0000000000000000000 ) ) ;
#97 = ORIENTED_EDGE ( 'NONE', *, *, #278, .F. ) ;
#98 = DIRECTION ( 'NONE',  ( 1.000000000000000000, 0.0000000000000000000, 0.0000000000000000000 ) ) ;
#99 = AXIS2_PLACEMENT_3D ( 'NONE', #203, #145, #112 ) ;
#100 = ORIENTED_EDGE ( 'NONE', *, *, #53, .F. ) ;
#101 = PRODUCT ( 'Offset Shaft', 'Offset Shaft', '', ( #372 ) ) ;
#102 = CIRCLE ( 'NONE', #5, 0.2999999999999999900 ) ;
#103 =( LENGTH_UNIT ( ) NAMED_UNIT ( * ) SI_UNIT ( $, .METRE. ) );
#104 =( NAMED_UNIT ( * ) PLANE_ANGLE_UNIT ( ) SI_UNIT ( $, .RADIAN. ) );
#105 = EDGE_LOOP ( 'NONE', ( #231, #191, #8, #4 ) ) ;
#106 = EDGE_CURVE ( 'NONE', #111, #109, #197, .T. ) ;
#107 = FACE_OUTER_BOUND ( 'NONE', #244, .T. ) ;
#108 = ORIENTED_EDGE ( 'NONE', *, *, #130, .T. ) ;
#109 = VERTEX_POINT ( 'NONE', #174 ) ;
#110 = DIRECTION ( 'NONE',  ( -1.000000000000000000, 0.0000000000000000000, 0.0000000000000000000 ) ) ;
#111 = VERTEX_POINT ( 'NONE', #352 ) ;
#112 = DIRECTION ( 'NONE',  ( 0.0000000000000000000, 0.0000000000000000000, 1.000000000000000000 ) ) ;
#113 = AXIS2_PLACEMENT_3D ( 'NONE', #148, #265, #65 ) ;
#114 = CARTESIAN_POINT ( 'NONE',  ( 0.0000000000000000000, 0.0000000000000000000, 0.0000000000000000000 ) ) ;
#115 = CIRCLE ( 'NONE', #161, 0.2687499999999999300 ) ;
#116 = PLANE ( 'NONE',  #311 ) ;
#117 = ORIENTED_EDGE ( 'NONE', *, *, #146, .T. ) ;
#118 = PLANE ( 'NONE',  #374 ) ;
#119 = CARTESIAN_POINT ( 'NONE',  ( 7.000000000000000000, 0.0000000000000000000, 0.0000000000000000000 ) ) ;
#120 = CARTESIAN_POINT ( 'NONE',  ( 6.531249999999999100, 3.291238272708510900E-017, 0.2687499999999999300 ) ) ;
#121 = CARTESIAN_POINT ( 'NONE',  ( 6.531249999999999100, 0.0000000000000000000, 0.0000000000000000000 ) ) ;
#122 = ORIENTED_EDGE ( 'NONE', *, *, #380, .T. ) ;
#123 = VECTOR ( 'NONE', #269, 39.37007874015748100 ) ;
#124 = DIRECTION ( 'NONE',  ( 1.000000000000000000, 0.0000000000000000000, 0.0000000000000000000 ) ) ;
#125 = EDGE_CURVE ( 'NONE', #338, #50, #346, .T. ) ;
#126 = CYLINDRICAL_SURFACE ( 'NONE', #285, 0.2999999999999999900 ) ;
#127 = SHAPE_DEFINITION_REPRESENTATION ( #389, #263 ) ;
#128 = LENGTH_MEASURE_WITH_UNIT ( LENGTH_MEASURE( 0.02539999999999999900 ), #258 );
#129 = EDGE_LOOP ( 'NONE', ( #168, #305 ) ) ;
#130 = EDGE_CURVE ( 'NONE', #302, #337, #115, .T. ) ;
#131 = FACE_OUTER_BOUND ( 'NONE', #313, .T. ) ;
#132 = DIRECTION ( 'NONE',  ( 1.000000000000000000, -0.0000000000000000000, -0.0000000000000000000 ) ) ;
#133 =( NAMED_UNIT ( * ) SI_UNIT ( $, .STERADIAN. ) SOLID_ANGLE_UNIT ( ) );
#134 = ORIENTED_EDGE ( 'NONE', *, *, #262, .F. ) ;
#135 = LINE ( 'NONE', #350, #353 ) ;
#136 = FACE_OUTER_BOUND ( 'NONE', #149, .T. ) ;
#137 = ADVANCED_FACE ( 'NONE', ( #45 ), #322, .T. ) ;
#138 = AXIS2_PLACEMENT_3D ( 'NONE', #280, #240, #209 ) ;
#139 = ORIENTED_EDGE ( 'NONE', *, *, #360, .T. ) ;
#140 = CIRCLE ( 'NONE', #288, 0.2999999999999999300 ) ;
#141 = ORIENTED_EDGE ( 'NONE', *, *, #319, .T. ) ;
#142 = CARTESIAN_POINT ( 'NONE',  ( 6.499999999999999100, 0.0000000000000000000, 0.0000000000000000000 ) ) ;
#143 = ADVANCED_FACE ( 'NONE', ( #229 ), #228, .F. ) ;
#144 = FILL_AREA_STYLE_COLOUR ( '', #309 ) ;
#145 = DIRECTION ( 'NONE',  ( -1.000000000000000000, 0.0000000000000000000, 0.0000000000000000000 ) ) ;
#146 = EDGE_CURVE ( 'NONE', #303, #163, #2, .T. ) ;
#147 = PLANE ( 'NONE',  #375 ) ;
#148 = CARTESIAN_POINT ( 'NONE',  ( 0.6250000000000000000, 0.0000000000000000000, 0.0000000000000000000 ) ) ;
#149 = EDGE_LOOP ( 'NONE', ( #30, #383, #327, #78 ) ) ;
#150 = DIRECTION ( 'NONE',  ( -1.000000000000000000, -0.0000000000000000000, -0.0000000000000000000 ) ) ;
#151 = DIRECTION ( 'NONE',  ( 0.0000000000000000000, 0.0000000000000000000, 1.000000000000000000 ) ) ;
#152 = CARTESIAN_POINT ( 'NONE',  ( 6.499999999999999100, 3.291238272708510900E-017, 0.2687499999999999300 ) ) ;
#153 = DIRECTION ( 'NONE',  ( 1.000000000000000000, 0.0000000000000000000, 0.0000000000000000000 ) ) ;
#154 = CARTESIAN_POINT ( 'NONE',  ( 7.000000000000000000, 0.0000000000000000000, 0.0000000000000000000 ) ) ;
#155 = EDGE_LOOP ( 'NONE', ( #166, #312, #39, #156 ) ) ;
#156 = ORIENTED_EDGE ( 'NONE', *, *, #51, .F. ) ;
#157 = DIRECTION ( 'NONE',  ( 1.000000000000000000, 0.0000000000000000000, 0.0000000000000000000 ) ) ;
#158 = EDGE_CURVE ( 'NONE', #163, #303, #165, .T. ) ;
#159 = PRESENTATION_STYLE_ASSIGNMENT (( #247 ) ) ;
#160 = ORIENTED_EDGE ( 'NONE', *, *, #366, .F. ) ;
#161 = AXIS2_PLACEMENT_3D ( 'NONE', #208, #24, #349 ) ;
#162 = EDGE_LOOP ( 'NONE', ( #386, #182, #267, #235 ) ) ;
#163 = VERTEX_POINT ( 'NONE', #75 ) ;
#164 = DIRECTION ( 'NONE',  ( 0.0000000000000000000, 0.0000000000000000000, -1.000000000000000000 ) ) ;
#165 = CIRCLE ( 'NONE', #252, 0.2999999999999999300 ) ;
#166 = ORIENTED_EDGE ( 'NONE', *, *, #53, .T. ) ;
#167 = EDGE_CURVE ( 'NONE', #163, #344, #214, .T. ) ;
#168 = ORIENTED_EDGE ( 'NONE', *, *, #366, .T. ) ;
#169 = AXIS2_PLACEMENT_3D ( 'NONE', #96, #387, #86 ) ;
#170 = DIRECTION ( 'NONE',  ( 0.0000000000000000000, 0.0000000000000000000, -1.000000000000000000 ) ) ;
#171 = DIRECTION ( 'NONE',  ( 0.0000000000000000000, 0.0000000000000000000, -1.000000000000000000 ) ) ;
#172 = ADVANCED_FACE ( 'NONE', ( #219 ), #55, .T. ) ;
#173 = DIRECTION ( 'NONE',  ( 1.000000000000000000, -0.0000000000000000000, -0.0000000000000000000 ) ) ;
#174 = CARTESIAN_POINT ( 'NONE',  ( 6.531249999999999100, 3.673940397442058900E-017, -0.2999999999999999300 ) ) ;
#175 = PRESENTATION_STYLE_ASSIGNMENT (( #206 ) ) ;
#176 = EDGE_LOOP ( 'NONE', ( #40, #373, #160, #97 ) ) ;
#177 = DIRECTION ( 'NONE',  ( 0.0000000000000000000, 0.0000000000000000000, 1.000000000000000000 ) ) ;
#178 = AXIS2_PLACEMENT_3D ( 'NONE', #281, #246, #26 ) ;
#179 = CARTESIAN_POINT ( 'NONE',  ( 0.6250000000000000000, 0.0000000000000000000, 0.2499999999999999200 ) ) ;
#180 = CARTESIAN_POINT ( 'NONE',  ( 7.000000000000000000, 3.673940397442058900E-017, -0.2999999999999999900 ) ) ;
#181 = CARTESIAN_POINT ( 'NONE',  ( 0.0000000000000000000, 3.061616997868382400E-017, -0.2499999999999999200 ) ) ;
#182 = ORIENTED_EDGE ( 'NONE', *, *, #262, .T. ) ;
#183 = DIRECTION ( 'NONE',  ( 1.000000000000000000, 0.0000000000000000000, 0.0000000000000000000 ) ) ;
#184 =( CONVERSION_BASED_UNIT ( 'INCH', #128 ) LENGTH_UNIT ( ) NAMED_UNIT ( #381 ) );
#185 = FACE_OUTER_BOUND ( 'NONE', #215, .T. ) ;
#186 = DIRECTION ( 'NONE',  ( 1.000000000000000000, 0.0000000000000000000, 0.0000000000000000000 ) ) ;
#187 = CARTESIAN_POINT ( 'NONE',  ( 0.6250000000000000000, 0.0000000000000000000, 0.0000000000000000000 ) ) ;
#188 = VERTEX_POINT ( 'NONE', #332 ) ;
#189 = CARTESIAN_POINT ( 'NONE',  ( 6.499999999999999100, 3.291238272708510900E-017, 0.2687499999999999300 ) ) ;
#190 = EDGE_CURVE ( 'NONE', #109, #111, #140, .T. ) ;
#191 = ORIENTED_EDGE ( 'NONE', *, *, #301, .T. ) ;
#192 = AXIS2_PLACEMENT_3D ( 'NONE', #62, #27, #293 ) ;
#193 = CIRCLE ( 'NONE', #99, 0.2999999999999999300 ) ;
#194 = CARTESIAN_POINT ( 'NONE',  ( 6.531249999999999100, 0.0000000000000000000, 0.0000000000000000000 ) ) ;
#195 = AXIS2_PLACEMENT_3D ( 'NONE', #60, #268, #357 ) ;
#196 = EDGE_CURVE ( 'NONE', #188, #111, #61, .T. ) ;
#197 = CIRCLE ( 'NONE', #79, 0.2999999999999999300 ) ;
#198 = ADVANCED_FACE ( 'NONE', ( #44, #291 ), #31, .F. ) ;
#199 = DIRECTION ( 'NONE',  ( -1.000000000000000000, -0.0000000000000000000, -0.0000000000000000000 ) ) ;
#200 = DIRECTION ( 'NONE',  ( 0.0000000000000000000, 0.0000000000000000000, -1.000000000000000000 ) ) ;
#201 = DIMENSIONAL_EXPONENTS ( 1.000000000000000000, 0.0000000000000000000, 0.0000000000000000000, 0.0000000000000000000, 0.0000000000000000000, 0.0000000000000000000, 0.0000000000000000000 ) ;
#202 = VECTOR ( 'NONE', #54, 39.37007874015748100 ) ;
#203 = CARTESIAN_POINT ( 'NONE',  ( 0.6250000000000000000, 0.0000000000000000000, 0.0000000000000000000 ) ) ;
#204 = DIRECTION ( 'NONE',  ( 0.0000000000000000000, 0.0000000000000000000, 1.000000000000000000 ) ) ;
#205 = AXIS2_PLACEMENT_3D ( 'NONE', #1, #261, #22 ) ;
#206 = SURFACE_STYLE_USAGE ( .BOTH. , #33 ) ;
#207 = CARTESIAN_POINT ( 'NONE',  ( 0.6250000000000000000, 0.0000000000000000000, 0.0000000000000000000 ) ) ;
#208 = CARTESIAN_POINT ( 'NONE',  ( 6.531249999999999100, 0.0000000000000000000, 0.0000000000000000000 ) ) ;
#209 = DIRECTION ( 'NONE',  ( 0.0000000000000000000, 0.0000000000000000000, 1.000000000000000000 ) ) ;
#210 = AXIS2_PLACEMENT_3D ( 'NONE', #121, #183, #385 ) ;
#211 = LINE ( 'NONE', #225, #123 ) ;
#212 = CLOSED_SHELL ( 'NONE', ( #371, #48, #172, #348, #222, #23, #198, #137, #317, #250, #284, #82, #143 ) ) ;
#213 = AXIS2_PLACEMENT_3D ( 'NONE', #321, #132, #3 ) ;
#214 = LINE ( 'NONE', #351, #74 ) ;
#215 = EDGE_LOOP ( 'NONE', ( #7, #80, #220, #260 ) ) ;
#216 = SURFACE_SIDE_STYLE ('',( #227 ) ) ;
#217 = VERTEX_POINT ( 'NONE', #299 ) ;
#218 = EDGE_CURVE ( 'NONE', #337, #302, #365, .T. ) ;
#219 = FACE_OUTER_BOUND ( 'NONE', #162, .T. ) ;
#220 = ORIENTED_EDGE ( 'NONE', *, *, #190, .T. ) ;
#221 = ORIENTED_EDGE ( 'NONE', *, *, #72, .F. ) ;
#222 = ADVANCED_FACE ( 'Face1', ( #136 ), #336, .T. ) ;
#223 = CIRCLE ( 'NONE', #169, 0.2687499999999999300 ) ;
#224 = CYLINDRICAL_SURFACE ( 'NONE', #270, 0.2499999999999999200 ) ;
#225 = CARTESIAN_POINT ( 'NONE',  ( 0.6250000000000000000, 3.061616997868382400E-017, -0.2499999999999999200 ) ) ;
#226 = CARTESIAN_POINT ( 'NONE',  ( 6.499999999999999100, 0.0000000000000000000, 0.0000000000000000000 ) ) ;
#227 = SURFACE_STYLE_FILL_AREA ( #12 ) ;
#228 = PLANE ( 'NONE',  #234 ) ;
#229 = FACE_OUTER_BOUND ( 'NONE', #35, .T. ) ;
#230 = DIRECTION ( 'NONE',  ( -1.000000000000000000, 0.0000000000000000000, 0.0000000000000000000 ) ) ;
#231 = ORIENTED_EDGE ( 'NONE', *, *, #343, .F. ) ;
#232 = DIRECTION ( 'NONE',  ( -1.000000000000000000, 0.0000000000000000000, 0.0000000000000000000 ) ) ;
#233 = CARTESIAN_POINT ( 'NONE',  ( 0.6250000000000000000, 0.0000000000000000000, 0.0000000000000000000 ) ) ;
#234 = AXIS2_PLACEMENT_3D ( 'NONE', #316, #49, #171 ) ;
#235 = ORIENTED_EDGE ( 'NONE', *, *, #380, .F. ) ;
#236 = VECTOR ( 'NONE', #264, 39.37007874015748100 ) ;
#237 =( NAMED_UNIT ( * ) PLANE_ANGLE_UNIT ( ) SI_UNIT ( $, .RADIAN. ) );
#238 = DIRECTION ( 'NONE',  ( 0.0000000000000000000, 0.0000000000000000000, -1.000000000000000000 ) ) ;
#239 = CARTESIAN_POINT ( 'NONE',  ( 6.531249999999999100, 0.0000000000000000000, 0.0000000000000000000 ) ) ;
#240 = DIRECTION ( 'NONE',  ( -1.000000000000000000, 0.0000000000000000000, 0.0000000000000000000 ) ) ;
#241 = CIRCLE ( 'NONE', #355, 0.2999999999999999900 ) ;
#242 = VERTEX_POINT ( 'NONE', #180 ) ;
#243 = APPLICATION_PROTOCOL_DEFINITION ( 'draft international standard', 'automotive_design', 1998, #77 ) ;
#244 = EDGE_LOOP ( 'NONE', ( #356, #362, #334, #378 ) ) ;
#245 =( GEOMETRIC_REPRESENTATION_CONTEXT ( 3 ) GLOBAL_UNCERTAINTY_ASSIGNED_CONTEXT ( ( #15 ) ) GLOBAL_UNIT_ASSIGNED_CONTEXT ( ( #341, #307, #133 ) ) REPRESENTATION_CONTEXT ( 'NONE', 'WORKASPACE' ) );
#246 = DIRECTION ( 'NONE',  ( 1.000000000000000000, 0.0000000000000000000, 0.0000000000000000000 ) ) ;
#247 = SURFACE_STYLE_USAGE ( .BOTH. , #216 ) ;
#248 = LENGTH_MEASURE_WITH_UNIT ( LENGTH_MEASURE( 0.02539999999999999900 ), #103 );
#249 = EDGE_LOOP ( 'NONE', ( #134, #139, #122, #253 ) ) ;
#250 = ADVANCED_FACE ( 'NONE', ( #107 ), #126, .T. ) ;
#251 = AXIS2_PLACEMENT_3D ( 'NONE', #90, #232, #56 ) ;
#252 = AXIS2_PLACEMENT_3D ( 'NONE', #333, #124, #300 ) ;
#253 = ORIENTED_EDGE ( 'NONE', *, *, #218, .F. ) ;
#254 = FACE_BOUND ( 'NONE', #277, .T. ) ;
#255 = CIRCLE ( 'NONE', #57, 0.2687499999999999300 ) ;
#256 = DIRECTION ( 'NONE',  ( -1.000000000000000000, -0.0000000000000000000, -0.0000000000000000000 ) ) ;
#257 = DIMENSIONAL_EXPONENTS ( 1.000000000000000000, 0.0000000000000000000, 0.0000000000000000000, 0.0000000000000000000, 0.0000000000000000000, 0.0000000000000000000, 0.0000000000000000000 ) ;
#258 =( LENGTH_UNIT ( ) NAMED_UNIT ( * ) SI_UNIT ( $, .METRE. ) );
#259 = SURFACE_STYLE_FILL_AREA ( #67 ) ;
#260 = ORIENTED_EDGE ( 'NONE', *, *, #196, .F. ) ;
#261 = DIRECTION ( 'NONE',  ( -1.000000000000000000, 0.0000000000000000000, 0.0000000000000000000 ) ) ;
#262 = EDGE_CURVE ( 'NONE', #70, #337, #36, .T. ) ;
#263 = ADVANCED_BREP_SHAPE_REPRESENTATION ( 'Offset Shaft', ( #335, #20 ), #245 ) ;
#264 = DIRECTION ( 'NONE',  ( -1.000000000000000000, -0.0000000000000000000, -0.0000000000000000000 ) ) ;
#265 = DIRECTION ( 'NONE',  ( -1.000000000000000000, -0.0000000000000000000, -0.0000000000000000000 ) ) ;
#266 = CARTESIAN_POINT ( 'NONE',  ( 6.499999999999999100, 0.0000000000000000000, -0.2687499999999999300 ) ) ;
#267 = ORIENTED_EDGE ( 'NONE', *, *, #130, .F. ) ;
#268 = DIRECTION ( 'NONE',  ( 1.000000000000000000, 0.0000000000000000000, 0.0000000000000000000 ) ) ;
#269 = DIRECTION ( 'NONE',  ( -1.000000000000000000, -0.0000000000000000000, -0.0000000000000000000 ) ) ;
#270 = AXIS2_PLACEMENT_3D ( 'NONE', #187, #256, #95 ) ;
#271 = CYLINDRICAL_SURFACE ( 'NONE', #113, 0.2499999999999999200 ) ;
#272 = FILL_AREA_STYLE_COLOUR ( '', #342 ) ;
#273 = VERTEX_POINT ( 'NONE', #266 ) ;
#274 = DIRECTION ( 'NONE',  ( -1.000000000000000000, -0.0000000000000000000, -0.0000000000000000000 ) ) ;
#275 = VECTOR ( 'NONE', #325, 39.37007874015748100 ) ;
#276 = AXIS2_PLACEMENT_3D ( 'NONE', #92, #358, #326 ) ;
#277 = EDGE_LOOP ( 'NONE', ( #100, #25 ) ) ;
#278 = EDGE_CURVE ( 'NONE', #303, #47, #297, .T. ) ;
#279 = LINE ( 'NONE', #179, #32 ) ;
#280 = CARTESIAN_POINT ( 'NONE',  ( 0.0000000000000000000, 0.0000000000000000000, 0.0000000000000000000 ) ) ;
#281 = CARTESIAN_POINT ( 'NONE',  ( 6.499999999999999100, 0.0000000000000000000, 0.0000000000000000000 ) ) ;
#282 =( CONVERSION_BASED_UNIT ( 'INCH', #69 ) LENGTH_UNIT ( ) NAMED_UNIT ( #201 ) );
#283 = STYLED_ITEM ( 'NONE', ( #159 ), #263 ) ;
#284 = ADVANCED_FACE ( 'NONE', ( #254, #81 ), #116, .T. ) ;
#285 = AXIS2_PLACEMENT_3D ( 'NONE', #29, #290, #204 ) ;
#286 = EDGE_LOOP ( 'NONE', ( #221, #294 ) ) ;
#287 = CARTESIAN_POINT ( 'NONE',  ( 7.000000000000000000, 0.0000000000000000000, 0.2999999999999999900 ) ) ;
#288 = AXIS2_PLACEMENT_3D ( 'NONE', #239, #34, #364 ) ;
#289 = DIRECTION ( 'NONE',  ( 0.0000000000000000000, 0.0000000000000000000, 1.000000000000000000 ) ) ;
#290 = DIRECTION ( 'NONE',  ( -1.000000000000000000, -0.0000000000000000000, -0.0000000000000000000 ) ) ;
#291 = FACE_OUTER_BOUND ( 'NONE', #292, .T. ) ;
#292 = EDGE_LOOP ( 'NONE', ( #89, #64 ) ) ;
#293 = DIRECTION ( 'NONE',  ( 0.0000000000000000000, 0.0000000000000000000, 1.000000000000000000 ) ) ;
#294 = ORIENTED_EDGE ( 'NONE', *, *, #360, .F. ) ;
#295 = EDGE_LOOP ( 'NONE', ( #108, #17 ) ) ;
#296 = DIRECTION ( 'NONE',  ( 1.000000000000000000, 0.0000000000000000000, 0.0000000000000000000 ) ) ;
#297 = LINE ( 'NONE', #287, #345 ) ;
#298 = AXIS2_PLACEMENT_3D ( 'NONE', #379, #68, #200 ) ;
#299 = CARTESIAN_POINT ( 'NONE',  ( 0.6250000000000000000, 0.0000000000000000000, 0.2499999999999999200 ) ) ;
#300 = DIRECTION ( 'NONE',  ( 0.0000000000000000000, 0.0000000000000000000, -1.000000000000000000 ) ) ;
#301 = EDGE_CURVE ( 'NONE', #323, #217, #306, .T. ) ;
#302 = VERTEX_POINT ( 'NONE', #384 ) ;
#303 = VERTEX_POINT ( 'NONE', #324 ) ;
#304 = PRESENTATION_LAYER_ASSIGNMENT (  '', '', ( #283 ) ) ;
#305 = ORIENTED_EDGE ( 'NONE', *, *, #85, .T. ) ;
#306 = CIRCLE ( 'NONE', #251, 0.2499999999999999200 ) ;
#307 =( NAMED_UNIT ( * ) PLANE_ANGLE_UNIT ( ) SI_UNIT ( $, .RADIAN. ) );
#308 =( NAMED_UNIT ( * ) SI_UNIT ( $, .STERADIAN. ) SOLID_ANGLE_UNIT ( ) );
#309 = COLOUR_RGB ( '',1.000000000000000000, 0.2588235294117646700, 0.2588235294117646700 ) ;
#310 = ORIENTED_EDGE ( 'NONE', *, *, #158, .T. ) ;
#311 = AXIS2_PLACEMENT_3D ( 'NONE', #233, #354, #177 ) ;
#312 = ORIENTED_EDGE ( 'NONE', *, *, #343, .T. ) ;
#313 = EDGE_LOOP ( 'NONE', ( #117, #310 ) ) ;
#314 = EDGE_CURVE ( 'NONE', #242, #109, #10, .T. ) ;
#315 = CYLINDRICAL_SURFACE ( 'NONE', #192, 0.2999999999999999900 ) ;
#316 = CARTESIAN_POINT ( 'NONE',  ( 0.0000000000000000000, 0.0000000000000000000, 0.0000000000000000000 ) ) ;
#317 = ADVANCED_FACE ( 'NONE', ( #18 ), #147, .T. ) ;
#318 = DIRECTION ( 'NONE',  ( -1.000000000000000000, -0.0000000000000000000, -0.0000000000000000000 ) ) ;
#319 = EDGE_CURVE ( 'NONE', #188, #242, #241, .T. ) ;
#320 = CARTESIAN_POINT ( 'NONE',  ( 0.0000000000000000000, 0.0000000000000000000, 0.0000000000000000000 ) ) ;
#321 = CARTESIAN_POINT ( 'NONE',  ( 6.499999999999999100, 0.0000000000000000000, 0.0000000000000000000 ) ) ;
#322 = CYLINDRICAL_SURFACE ( 'NONE', #213, 0.2687499999999999300 ) ;
#323 = VERTEX_POINT ( 'NONE', #331 ) ;
#324 = CARTESIAN_POINT ( 'NONE',  ( 6.499999999999999100, 0.0000000000000000000, 0.2999999999999999300 ) ) ;
#325 = DIRECTION ( 'NONE',  ( 1.000000000000000000, -0.0000000000000000000, -0.0000000000000000000 ) ) ;
#326 = DIRECTION ( 'NONE',  ( 0.0000000000000000000, 0.0000000000000000000, 1.000000000000000000 ) ) ;
#327 = ORIENTED_EDGE ( 'NONE', *, *, #278, .T. ) ;
#328 = DIRECTION ( 'NONE',  ( 0.0000000000000000000, 0.0000000000000000000, -1.000000000000000000 ) ) ;
#329 = FACE_OUTER_BOUND ( 'NONE', #176, .T. ) ;
#330 = MECHANICAL_DESIGN_GEOMETRIC_PRESENTATION_REPRESENTATION (  '', ( #283 ), #347 ) ;
#331 = CARTESIAN_POINT ( 'NONE',  ( 0.6250000000000000000, 3.061616997868382400E-017, -0.2499999999999999200 ) ) ;
#332 = CARTESIAN_POINT ( 'NONE',  ( 7.000000000000000000, 0.0000000000000000000, 0.2999999999999999900 ) ) ;
#333 = CARTESIAN_POINT ( 'NONE',  ( 6.499999999999999100, 0.0000000000000000000, 0.0000000000000000000 ) ) ;
#334 = ORIENTED_EDGE ( 'NONE', *, *, #196, .T. ) ;
#335 = MANIFOLD_SOLID_BREP ( 'Cut-Extrude2', #212 ) ;
#336 = CYLINDRICAL_SURFACE ( 'NONE', #276, 0.2999999999999999900 ) ;
#337 = VERTEX_POINT ( 'NONE', #120 ) ;
#338 = VERTEX_POINT ( 'NONE', #382 ) ;
#339 = FACE_OUTER_BOUND ( 'NONE', #105, .T. ) ;
#340 = ORIENTED_EDGE ( 'NONE', *, *, #125, .T. ) ;
#341 =( CONVERSION_BASED_UNIT ( 'INCH', #248 ) LENGTH_UNIT ( ) NAMED_UNIT ( #257 ) );
#342 = COLOUR_RGB ( '',1.000000000000000000, 0.2588235294117646700, 0.2588235294117646700 ) ;
#343 = EDGE_CURVE ( 'NONE', #323, #50, #211, .T. ) ;
#344 = VERTEX_POINT ( 'NONE', #359 ) ;
#345 = VECTOR ( 'NONE', #150, 39.37007874015748100 ) ;
#346 = CIRCLE ( 'NONE', #138, 0.2499999999999999200 ) ;
#347 =( GEOMETRIC_REPRESENTATION_CONTEXT ( 3 ) GLOBAL_UNCERTAINTY_ASSIGNED_CONTEXT ( ( #58 ) ) GLOBAL_UNIT_ASSIGNED_CONTEXT ( ( #282, #104, #308 ) ) REPRESENTATION_CONTEXT ( 'NONE', 'WORKASPACE' ) );
#348 = ADVANCED_FACE ( 'Face1', ( #329 ), #315, .T. ) ;
#349 = DIRECTION ( 'NONE',  ( 0.0000000000000000000, 0.0000000000000000000, -1.000000000000000000 ) ) ;
#350 = CARTESIAN_POINT ( 'NONE',  ( 6.499999999999999100, 0.0000000000000000000, -0.2687499999999999300 ) ) ;
#351 = CARTESIAN_POINT ( 'NONE',  ( 7.000000000000000000, 3.673940397442058900E-017, -0.2999999999999999900 ) ) ;
#352 = CARTESIAN_POINT ( 'NONE',  ( 6.531249999999999100, 0.0000000000000000000, 0.2999999999999999300 ) ) ;
#353 = VECTOR ( 'NONE', #173, 39.37007874015748100 ) ;
#354 = DIRECTION ( 'NONE',  ( -1.000000000000000000, 0.0000000000000000000, 0.0000000000000000000 ) ) ;
#355 = AXIS2_PLACEMENT_3D ( 'NONE', #361, #157, #388 ) ;
#356 = ORIENTED_EDGE ( 'NONE', *, *, #314, .F. ) ;
#357 = DIRECTION ( 'NONE',  ( 0.0000000000000000000, 0.0000000000000000000, -1.000000000000000000 ) ) ;
#358 = DIRECTION ( 'NONE',  ( -1.000000000000000000, -0.0000000000000000000, -0.0000000000000000000 ) ) ;
#359 = CARTESIAN_POINT ( 'NONE',  ( 0.6250000000000000000, 3.673940397442058900E-017, -0.2999999999999999300 ) ) ;
#360 = EDGE_CURVE ( 'NONE', #70, #273, #223, .T. ) ;
#361 = CARTESIAN_POINT ( 'NONE',  ( 7.000000000000000000, 0.0000000000000000000, 0.0000000000000000000 ) ) ;
#362 = ORIENTED_EDGE ( 'NONE', *, *, #319, .F. ) ;
#363 = AXIS2_PLACEMENT_3D ( 'NONE', #114, #110, #151 ) ;
#364 = DIRECTION ( 'NONE',  ( 0.0000000000000000000, 0.0000000000000000000, -1.000000000000000000 ) ) ;
#365 = CIRCLE ( 'NONE', #195, 0.2687499999999999300 ) ;
#366 = EDGE_CURVE ( 'NONE', #47, #344, #83, .T. ) ;
#367 = DIRECTION ( 'NONE',  ( 1.000000000000000000, 0.0000000000000000000, 0.0000000000000000000 ) ) ;
#368 = FACE_BOUND ( 'NONE', #286, .T. ) ;
#369 = APPLICATION_PROTOCOL_DEFINITION ( 'draft international standard', 'automotive_design', 1998, #43 ) ;
#370 = DIRECTION ( 'NONE',  ( 1.000000000000000000, 0.0000000000000000000, 0.0000000000000000000 ) ) ;
#371 = ADVANCED_FACE ( 'NONE', ( #9 ), #224, .T. ) ;
#372 = PRODUCT_CONTEXT ( 'NONE', #43, 'mechanical' ) ;
#373 = ORIENTED_EDGE ( 'NONE', *, *, #167, .T. ) ;
#374 = AXIS2_PLACEMENT_3D ( 'NONE', #142, #153, #84 ) ;
#375 = AXIS2_PLACEMENT_3D ( 'NONE', #154, #296, #238 ) ;
#376 = DIRECTION ( 'NONE',  ( 0.0000000000000000000, 0.0000000000000000000, 1.000000000000000000 ) ) ;
#377 = PRODUCT_DEFINITION_CONTEXT ( 'detailed design', #77, 'design' ) ;
#378 = ORIENTED_EDGE ( 'NONE', *, *, #106, .T. ) ;
#379 = CARTESIAN_POINT ( 'NONE',  ( 6.499999999999999100, 0.0000000000000000000, 0.0000000000000000000 ) ) ;
#380 = EDGE_CURVE ( 'NONE', #273, #302, #135, .T. ) ;
#381 = DIMENSIONAL_EXPONENTS ( 1.000000000000000000, 0.0000000000000000000, 0.0000000000000000000, 0.0000000000000000000, 0.0000000000000000000, 0.0000000000000000000, 0.0000000000000000000 ) ;
#382 = CARTESIAN_POINT ( 'NONE',  ( 0.0000000000000000000, 0.0000000000000000000, 0.2499999999999999200 ) ) ;
#383 = ORIENTED_EDGE ( 'NONE', *, *, #146, .F. ) ;
#384 = CARTESIAN_POINT ( 'NONE',  ( 6.531249999999999100, 0.0000000000000000000, -0.2687499999999999300 ) ) ;
#385 = DIRECTION ( 'NONE',  ( 0.0000000000000000000, 0.0000000000000000000, -1.000000000000000000 ) ) ;
#386 = ORIENTED_EDGE ( 'NONE', *, *, #72, .T. ) ;
#387 = DIRECTION ( 'NONE',  ( 1.000000000000000000, 0.0000000000000000000, 0.0000000000000000000 ) ) ;
#388 = DIRECTION ( 'NONE',  ( 0.0000000000000000000, 0.0000000000000000000, -1.000000000000000000 ) ) ;
#389 = PRODUCT_DEFINITION_SHAPE ( 'NONE', 'NONE',  #42 ) ;
ENDSEC;
END-ISO-10303-21;
